  0
SECTION
  2
HEADER
  9
$ACADVER
  1
AC1021
  9
$ACADMAINTVER
 70
     1
  9
$DWGCODEPAGE
  3
ANSI_1252
  9
$INSBASE
 10
0.0
 20
0.0
 30
0.0
  9
$EXTMIN
 10
-45.30073636782431
 20
-4.31892937345296
 30
0.0
  9
$EXTMAX
 10
33.07356645467885
 20
71.31764412832807
 30
0.0
  9
$LIMMIN
 10
0.0
 20
0.0
  9
$LIMMAX
 10
420.0
 20
297.0
  9
$ORTHOMODE
 70
     0
  9
$REGENMODE
 70
     1
  9
$FILLMODE
 70
     1
  9
$QTEXTMODE
 70
     0
  9
$MIRRTEXT
 70
     1
  9
$LTSCALE
 40
1.0
  9
$ATTMODE
 70
     1
  9
$TEXTSIZE
 40
1.0
  9
$TRACEWID
 40
1.0
  9
$TEXTSTYLE
  7
Standard
  9
$CLAYER
  8
0
  9
$CELTYPE
  6
ByLayer
  9
$CECOLOR
 62
   256
  9
$CELTSCALE
 40
1.0
  9
$DISPSILH
 70
     0
  9
$DIMSCALE
 40
1.0
  9
$DIMASZ
 40
2.5
  9
$DIMEXO
 40
0.625
  9
$DIMDLI
 40
3.75
  9
$DIMRND
 40
0.0
  9
$DIMDLE
 40
0.0
  9
$DIMEXE
 40
1.25
  9
$DIMTP
 40
0.0
  9
$DIMTM
 40
0.0
  9
$DIMTXT
 40
2.5
  9
$DIMCEN
 40
2.5
  9
$DIMTSZ
 40
0.0
  9
$DIMTOL
 70
     0
  9
$DIMLIM
 70
     0
  9
$DIMTIH
 70
     0
  9
$DIMTOH
 70
     0
  9
$DIMSE1
 70
     0
  9
$DIMSE2
 70
     0
  9
$DIMTAD
 70
     1
  9
$DIMZIN
 70
     8
  9
$DIMBLK
  1

  9
$DIMASO
 70
     1
  9
$DIMSHO
 70
     1
  9
$DIMPOST
  1

  9
$DIMAPOST
  1

  9
$DIMALT
 70
     0
  9
$DIMALTD
 70
     3
  9
$DIMALTF
 40
0.03937007874016
  9
$DIMLFAC
 40
1.0
  9
$DIMTOFL
 70
     1
  9
$DIMTVP
 40
0.0
  9
$DIMTIX
 70
     0
  9
$DIMSOXD
 70
     0
  9
$DIMSAH
 70
     0
  9
$DIMBLK1
  1

  9
$DIMBLK2
  1

  9
$DIMSTYLE
  2
ISO-25
  9
$DIMCLRD
 70
     0
  9
$DIMCLRE
 70
     0
  9
$DIMCLRT
 70
     0
  9
$DIMTFAC
 40
1.0
  9
$DIMGAP
 40
0.625
  9
$DIMJUST
 70
     0
  9
$DIMSD1
 70
     0
  9
$DIMSD2
 70
     0
  9
$DIMTOLJ
 70
     0
  9
$DIMTZIN
 70
     8
  9
$DIMALTZ
 70
     0
  9
$DIMALTTZ
 70
     0
  9
$DIMUPT
 70
     0
  9
$DIMDEC
 70
     2
  9
$DIMTDEC
 70
     2
  9
$DIMALTU
 70
     2
  9
$DIMALTTD
 70
     3
  9
$DIMTXSTY
  7
Standard
  9
$DIMAUNIT
 70
     0
  9
$DIMADEC
 70
     0
  9
$DIMALTRND
 40
0.0
  9
$DIMAZIN
 70
     0
  9
$DIMDSEP
 70
    44
  9
$DIMATFIT
 70
     3
  9
$DIMFRAC
 70
     0
  9
$DIMLDRBLK
  1

  9
$DIMLUNIT
 70
     2
  9
$DIMLWD
 70
    -2
  9
$DIMLWE
 70
    -2
  9
$DIMTMOVE
 70
     0
  9
$DIMFXL
 40
1.0
  9
$DIMFXLON
 70
     0
  9
$DIMJOGANG
 40
0.7853981633974483
  9
$DIMTFILL
 70
     0
  9
$DIMTFILLCLR
 70
     0
  9
$DIMARCSYM
 70
     0
  9
$DIMLTYPE
  6

  9
$DIMLTEX1
  6

  9
$DIMLTEX2
  6

  9
$LUNITS
 70
     2
  9
$LUPREC
 70
     4
  9
$SKETCHINC
 40
1.0
  9
$FILLETRAD
 40
10.0
  9
$AUNITS
 70
     0
  9
$AUPREC
 70
     0
  9
$MENU
  1
.
  9
$ELEVATION
 40
0.0
  9
$PELEVATION
 40
0.0
  9
$THICKNESS
 40
0.0
  9
$LIMCHECK
 70
     0
  9
$CHAMFERA
 40
10.0
  9
$CHAMFERB
 40
10.0
  9
$CHAMFERC
 40
20.0
  9
$CHAMFERD
 40
0.0
  9
$SKPOLY
 70
     0
  9
$TDCREATE
 40
2456462.65485353
  9
$TDUCREATE
 40
2456462.613186863
  9
$TDUPDATE
 40
2456462.654853542
  9
$TDUUPDATE
 40
2456462.613186875
  9
$TDINDWG
 40
0.0000000116
  9
$TDUSRTIMER
 40
0.0000000116
  9
$USRTIMER
 70
     1
  9
$ANGBASE
 50
0.0
  9
$ANGDIR
 70
     0
  9
$PDMODE
 70
     0
  9
$PDSIZE
 40
0.0
  9
$PLINEWID
 40
0.0
  9
$SPLFRAME
 70
     0
  9
$SPLINETYPE
 70
     6
  9
$SPLINESEGS
 70
     8
  9
$HANDSEED
  5
12E
  9
$SURFTAB1
 70
     6
  9
$SURFTAB2
 70
     6
  9
$SURFTYPE
 70
     6
  9
$SURFU
 70
     6
  9
$SURFV
 70
     6
  9
$UCSBASE
  2

  9
$UCSNAME
  2

  9
$UCSORG
 10
0.0
 20
0.0
 30
0.0
  9
$UCSXDIR
 10
1.0
 20
0.0
 30
0.0
  9
$UCSYDIR
 10
0.0
 20
1.0
 30
0.0
  9
$UCSORTHOREF
  2

  9
$UCSORTHOVIEW
 70
     0
  9
$UCSORGTOP
 10
0.0
 20
0.0
 30
0.0
  9
$UCSORGBOTTOM
 10
0.0
 20
0.0
 30
0.0
  9
$UCSORGLEFT
 10
0.0
 20
0.0
 30
0.0
  9
$UCSORGRIGHT
 10
0.0
 20
0.0
 30
0.0
  9
$UCSORGFRONT
 10
0.0
 20
0.0
 30
0.0
  9
$UCSORGBACK
 10
0.0
 20
0.0
 30
0.0
  9
$PUCSBASE
  2

  9
$PUCSNAME
  2

  9
$PUCSORG
 10
0.0
 20
0.0
 30
0.0
  9
$PUCSXDIR
 10
1.0
 20
0.0
 30
0.0
  9
$PUCSYDIR
 10
0.0
 20
1.0
 30
0.0
  9
$PUCSORTHOREF
  2

  9
$PUCSORTHOVIEW
 70
     0
  9
$PUCSORGTOP
 10
0.0
 20
0.0
 30
0.0
  9
$PUCSORGBOTTOM
 10
0.0
 20
0.0
 30
0.0
  9
$PUCSORGLEFT
 10
0.0
 20
0.0
 30
0.0
  9
$PUCSORGRIGHT
 10
0.0
 20
0.0
 30
0.0
  9
$PUCSORGFRONT
 10
0.0
 20
0.0
 30
0.0
  9
$PUCSORGBACK
 10
0.0
 20
0.0
 30
0.0
  9
$USERI1
 70
     0
  9
$USERI2
 70
     0
  9
$USERI3
 70
     0
  9
$USERI4
 70
     0
  9
$USERI5
 70
     0
  9
$USERR1
 40
0.0
  9
$USERR2
 40
0.0
  9
$USERR3
 40
0.0
  9
$USERR4
 40
0.0
  9
$USERR5
 40
0.0
  9
$WORLDVIEW
 70
     1
  9
$SHADEDGE
 70
     3
  9
$SHADEDIF
 70
    70
  9
$TILEMODE
 70
     1
  9
$MAXACTVP
 70
    64
  9
$PINSBASE
 10
0.0
 20
0.0
 30
0.0
  9
$PLIMCHECK
 70
     0
  9
$PEXTMIN
 10
1.000000000000000E+20
 20
1.000000000000000E+20
 30
1.000000000000000E+20
  9
$PEXTMAX
 10
-1.000000000000000E+20
 20
-1.000000000000000E+20
 30
-1.000000000000000E+20
  9
$PLIMMIN
 10
0.0
 20
0.0
  9
$PLIMMAX
 10
420.0
 20
297.0
  9
$UNITMODE
 70
     0
  9
$VISRETAIN
 70
     1
  9
$PLINEGEN
 70
     0
  9
$PSLTSCALE
 70
     1
  9
$TREEDEPTH
 70
  3020
  9
$CMLSTYLE
  2
Standard
  9
$CMLJUST
 70
     0
  9
$CMLSCALE
 40
20.0
  9
$PROXYGRAPHICS
 70
     1
  9
$MEASUREMENT
 70
     1
  9
$CELWEIGHT
370
    -1
  9
$ENDCAPS
280
     0
  9
$JOINSTYLE
280
     0
  9
$LWDISPLAY
290
     0
  9
$INSUNITS
 70
     4
  9
$HYPERLINKBASE
  1

  9
$STYLESHEET
  1

  9
$XEDIT
290
     1
  9
$CEPSNTYPE
380
     0
  9
$PSTYLEMODE
290
     1
  9
$FINGERPRINTGUID
  2
{44265C05-0935-4CA0-B8C6-845AB8516DEE}
  9
$VERSIONGUID
  2
{FAEB1C32-E019-11D5-929B-00C0DF256EC4}
  9
$EXTNAMES
290
     1
  9
$PSVPSCALE
 40
0.0
  9
$OLESTARTUP
290
     0
  9
$SORTENTS
280
   127
  9
$INDEXCTL
280
     0
  9
$HIDETEXT
280
     1
  9
$XCLIPFRAME
290
     0
  9
$HALOGAP
280
     0
  9
$OBSCOLOR
 70
   257
  9
$OBSLTYPE
280
     0
  9
$INTERSECTIONDISPLAY
280
     0
  9
$INTERSECTIONCOLOR
 70
   257
  9
$DIMASSOC
280
     2
  9
$PROJECTNAME
  1

  9
$CAMERADISPLAY
290
     0
  9
$LENSLENGTH
 40
50.0
  9
$CAMERAHEIGHT
 40
0.0
  9
$STEPSPERSEC
 40
2.0
  9
$STEPSIZE
 40
6.0
  9
$3DDWFPREC
 40
2.0
  9
$PSOLWIDTH
 40
5.0
  9
$PSOLHEIGHT
 40
80.0
  9
$LOFTANG1
 40
1.570796326794897
  9
$LOFTANG2
 40
1.570796326794897
  9
$LOFTMAG1
 40
0.0
  9
$LOFTMAG2
 40
0.0
  9
$LOFTPARAM
 70
     7
  9
$LOFTNORMALS
280
     1
  9
$LATITUDE
 40
37.795
  9
$LONGITUDE
 40
-122.394
  9
$NORTHDIRECTION
 40
0.0
  9
$TIMEZONE
 70
 -8000
  9
$LIGHTGLYPHDISPLAY
280
     1
  9
$TILEMODELIGHTSYNCH
280
     1
  9
$SOLIDHIST
280
     1
  9
$SHOWHIST
280
     1
  9
$DWFFRAME
280
     2
  9
$DGNFRAME
280
     2
  9
$REALWORLDSCALE
290
     1
  9
$INTERFERECOLOR
 62
   256
  9
$CSHADOW
280
     0
  9
$SHADOWPLANELOCATION
 40
0.0
  0
ENDSEC
  0
SECTION
  2
CLASSES
  0
CLASS
  1
ACDBDICTIONARYWDFLT
  2
AcDbDictionaryWithDefault
  3
ObjectDBX Classes
 90
        0
 91
        3
280
     0
281
     0
  0
CLASS
  1
VISUALSTYLE
  2
AcDbVisualStyle
  3
ObjectDBX Classes
 90
     4095
 91
        3
280
     0
281
     0
  0
ENDSEC
  0
SECTION
  2
TABLES
  0
TABLE
  2
VPORT
  5
8
330
0
100
AcDbSymbolTable
 70
     1
  0
VPORT
  5
29
330
8
100
AcDbSymbolTableRecord
100
AcDbViewportTableRecord
  2
*Active
 70
     0
 10
0.0
 20
0.0
 11
1.0
 21
1.0
 12
344.1869158878504
 22
148.5
 13
0.0
 23
0.0
 14
10.0
 24
10.0
 15
10.0
 25
10.0
 16
0.0
 26
0.0
 36
1.0
 17
0.0
 27
0.0
 37
0.0
 40
297.0
 41
1.972972972850329
 42
50.0
 43
0.0
 44
0.0
 50
0.0
 51
0.0
 71
     0
 72
   100
 73
     1
 74
     3
 75
     0
 76
     0
 77
     0
 78
     0
281
     0
 65
     1
110
0.0
120
0.0
130
0.0
111
1.0
121
0.0
131
0.0
112
0.0
122
1.0
132
0.0
 79
     0
146
0.0
 60
     3
 61
     5
292
     1
282
     1
141
0.0
142
0.0
 63
   256
  0
ENDTAB
  0
TABLE
  2
LTYPE
  5
5
330
0
100
AcDbSymbolTable
 70
     9
  0
LTYPE
  5
14
330
5
100
AcDbSymbolTableRecord
100
AcDbLinetypeTableRecord
  2
ByBlock
 70
     0
  3

 72
    65
 73
     0
 40
0.0
  0
LTYPE
  5
15
330
5
100
AcDbSymbolTableRecord
100
AcDbLinetypeTableRecord
  2
ByLayer
 70
     0
  3

 72
    65
 73
     0
 40
0.0
  0
LTYPE
  5
16
330
5
100
AcDbSymbolTableRecord
100
AcDbLinetypeTableRecord
  2
Continuous
 70
     0
  3
Solid line
 72
    65
 73
     0
 40
0.0
  0
LTYPE
  5
3B
330
5
100
AcDbSymbolTableRecord
100
AcDbLinetypeTableRecord
  2
DOT
 70
     0
  3
____    ____    
 72
    65
 73
     4
 40
16.0
 49
4.0
 74
     0
 49
-4.0
 74
     0
 49
4.0
 74
     0
 49
-4.0
 74
     0
  0
LTYPE
  5
3C
330
5
100
AcDbSymbolTableRecord
100
AcDbLinetypeTableRecord
  2
HIDDEN
 70
     0
  3
__  __  __  __  
 72
    65
 73
     8
 40
16.0
 49
2.0
 74
     0
 49
-2.0
 74
     0
 49
2.0
 74
     0
 49
-2.0
 74
     0
 49
2.0
 74
     0
 49
-2.0
 74
     0
 49
2.0
 74
     0
 49
-2.0
 74
     0
  0
LTYPE
  5
3D
330
5
100
AcDbSymbolTableRecord
100
AcDbLinetypeTableRecord
  2
DASHED
 70
     0
  3
________        
 72
    65
 73
     2
 40
16.0
 49
8.0
 74
     0
 49
-8.0
 74
     0
  0
LTYPE
  5
3E
330
5
100
AcDbSymbolTableRecord
100
AcDbLinetypeTableRecord
  2
DASHDOT
 70
     0
  3
____________    
 72
    65
 73
     2
 40
16.0
 49
12.0
 74
     0
 49
-4.0
 74
     0
  0
LTYPE
  5
3F
330
5
100
AcDbSymbolTableRecord
100
AcDbLinetypeTableRecord
  2
BORDER
 70
     0
  3
_____________ _ 
 72
    65
 73
     4
 40
16.0
 49
13.0
 74
     0
 49
-1.0
 74
     0
 49
1.0
 74
     0
 49
-1.0
 74
     0
  0
LTYPE
  5
40
330
5
100
AcDbSymbolTableRecord
100
AcDbLinetypeTableRecord
  2
CENTER
 70
     0
  3
_________  ___  
 72
    65
 73
     4
 40
16.0
 49
9.0
 74
     0
 49
-2.0
 74
     0
 49
3.0
 74
     0
 49
-2.0
 74
     0
  0
LTYPE
  5
41
330
5
100
AcDbSymbolTableRecord
100
AcDbLinetypeTableRecord
  2
PHANTOM
 70
     0
  3
_______   ___   
 72
    65
 73
     4
 40
16.0
 49
7.0
 74
     0
 49
-3.0
 74
     0
 49
3.0
 74
     0
 49
-3.0
 74
     0
  0
LTYPE
  5
42
330
5
100
AcDbSymbolTableRecord
100
AcDbLinetypeTableRecord
  2
DIVIDE
 70
     0
  3
_______  __ __  
 72
    65
 73
     6
 40
16.0
 49
7.0
 74
     0
 49
-2.0
 74
     0
 49
2.0
 74
     0
 49
-1.0
 74
     0
 49
2.0
 74
     0
 49
-2.0
 74
     0
  0
ENDTAB
  0
TABLE
  2
LAYER
  5
2
330
0
100
AcDbSymbolTable
 70
     2
  0
LAYER
  5
10
330
2
100
AcDbSymbolTableRecord
100
AcDbLayerTableRecord
  2
0
 70
     0
 62
     7
  6
Continuous
370
    -3
390
F
347
0
  0
LAYER
  5
43
330
2
100
AcDbSymbolTableRecord
100
AcDbLayerTableRecord
  2
1
 70
     0
 62
     7
420
 16777215
  6
Continuous
370
    -3
390
F
347
0
  0
ENDTAB
  0
TABLE
  2
STYLE
  5
3
330
0
100
AcDbSymbolTable
 70
     1
  0
STYLE
  5
11
330
3
100
AcDbSymbolTableRecord
100
AcDbTextStyleTableRecord
  2
Standard
 70
     0
 40
0.0
 41
1.0
 50
0.0
 71
     0
 42
2.5
  3
txt
  4

  0
ENDTAB
  0
TABLE
  2
VIEW
  5
6
330
0
100
AcDbSymbolTable
 70
     0
  0
ENDTAB
  0
TABLE
  2
UCS
  5
7
330
0
100
AcDbSymbolTable
 70
     0
  0
ENDTAB
  0
TABLE
  2
APPID
  5
9
330
0
100
AcDbSymbolTable
 70
     1
  0
APPID
  5
12
330
9
100
AcDbSymbolTableRecord
100
AcDbRegAppTableRecord
  2
ACAD
 70
     0
  0
ENDTAB
  0
TABLE
  2
DIMSTYLE
  5
A
330
0
100
AcDbSymbolTable
 70
     1
100
AcDbDimStyleTable
  0
DIMSTYLE
105
27
330
A
100
AcDbSymbolTableRecord
100
AcDbDimStyleTableRecord
  2
ISO-25
 70
     0
 41
2.5
 42
0.625
 43
3.75
 44
1.25
 73
     0
 74
     0
 77
     1
 78
     8
140
2.5
141
2.5
143
0.03937007874016
147
0.625
171
     3
172
     1
271
     2
272
     2
274
     3
278
    44
283
     0
284
     8
340
11
  0
ENDTAB
  0
TABLE
  2
BLOCK_RECORD
  5
1
330
0
100
AcDbSymbolTable
 70
     7
  0
BLOCK_RECORD
  5
1F
330
1
100
AcDbSymbolTableRecord
100
AcDbBlockTableRecord
  2
*Model_Space
340
22
 70
     0
280
     1
281
     0
  0
BLOCK_RECORD
  5
1B
330
1
100
AcDbSymbolTableRecord
100
AcDbBlockTableRecord
  2
*Paper_Space
340
1E
 70
     0
280
     1
281
     0
  0
BLOCK_RECORD
  5
23
330
1
100
AcDbSymbolTableRecord
100
AcDbBlockTableRecord
  2
*Paper_Space0
340
26
 70
     0
280
     1
281
     0
  0
BLOCK_RECORD
  5
44
330
1
100
AcDbSymbolTableRecord
100
AcDbBlockTableRecord
  2
GEN_BLOCK
340
0
102
{BLKREFS
331
47
102
}
 70
     0
280
     1
281
     0
  0
BLOCK_RECORD
  5
54
330
1
100
AcDbSymbolTableRecord
100
AcDbBlockTableRecord
  2
GEN_BLOCK00000
340
0
102
{BLKREFS
331
57
102
}
 70
     0
280
     1
281
     0
  0
BLOCK_RECORD
  5
5D
330
1
100
AcDbSymbolTableRecord
100
AcDbBlockTableRecord
  2
GEN_BLOCK00001
340
0
102
{BLKREFS
331
60
102
}
 70
     0
280
     1
281
     0
  0
BLOCK_RECORD
  5
6A
330
1
100
AcDbSymbolTableRecord
100
AcDbBlockTableRecord
  2
GEN_BLOCK00002
340
0
102
{BLKREFS
331
6D
102
}
 70
     0
280
     1
281
     0
  0
BLOCK_RECORD
  5
6F
330
1
100
AcDbSymbolTableRecord
100
AcDbBlockTableRecord
  2
GEN_BLOCK00003
340
0
102
{BLKREFS
331
72
102
}
 70
     0
280
     1
281
     0
  0
BLOCK_RECORD
  5
DD
330
1
100
AcDbSymbolTableRecord
100
AcDbBlockTableRecord
  2
GEN_BLOCK00004
340
0
102
{BLKREFS
331
E0
102
}
 70
     0
280
     1
281
     0
  0
ENDTAB
  0
ENDSEC
  0
SECTION
  2
BLOCKS
  0
BLOCK
  5
20
330
1F
100
AcDbEntity
  8
0
100
AcDbBlockBegin
  2
*Model_Space
 70
     0
 71
     0
 10
0.0
 20
0.0
 30
0.0
  3
*Model_Space
  1

  0
ENDBLK
  5
21
330
1F
100
AcDbEntity
  8
0
100
AcDbBlockEnd
  0
BLOCK
  5
1C
330
1B
100
AcDbEntity
 67
     1
  8
0
100
AcDbBlockBegin
  2
*Paper_Space
 70
     0
 71
     0
 10
0.0
 20
0.0
 30
0.0
  3
*Paper_Space
  1

  0
ENDBLK
  5
1D
330
1B
100
AcDbEntity
 67
     1
  8
0
100
AcDbBlockEnd
  0
BLOCK
  5
24
330
23
100
AcDbEntity
  8
0
100
AcDbBlockBegin
  2
*Paper_Space0
 70
     0
 71
     0
 10
0.0
 20
0.0
 30
0.0
  3
*Paper_Space0
  1

  0
ENDBLK
  5
25
330
23
100
AcDbEntity
  8
0
100
AcDbBlockEnd
  0
BLOCK
  5
45
330
44
100
AcDbEntity
  8
0
100
AcDbBlockBegin
  2
GEN_BLOCK
 70
     0
 71
     0
 10
0.0
 20
0.0
 30
0.0
  3
GEN_BLOCK
  1

  0
LINE
  5
48
330
44
100
AcDbEntity
  8
1
  6
HIDDEN
 62
    15
100
AcDbLine
 10
26.29277408123016
 20
23.62941741943359
 30
0.0
 11
40.03027439117432
 21
23.62941741943359
 31
0.0
  0
LINE
  5
49
330
44
100
AcDbEntity
  8
1
  6
HIDDEN
 62
    15
100
AcDbLine
 10
40.03027439117432
 20
23.62941741943359
 30
0.0
 11
40.03027439117432
 21
33.31691741943359
 31
0.0
  0
LINE
  5
4A
330
44
100
AcDbEntity
  8
1
  6
HIDDEN
 62
    15
100
AcDbLine
 10
40.03027439117432
 20
33.31691741943359
 30
0.0
 11
26.29277408123016
 21
33.31691741943359
 31
0.0
  0
LINE
  5
4B
330
44
100
AcDbEntity
  8
1
  6
HIDDEN
 62
    15
100
AcDbLine
 10
26.29277408123016
 20
33.31691741943359
 30
0.0
 11
26.29277408123016
 21
23.62941741943359
 31
0.0
  0
TEXT
  5
4C
330
44
100
AcDbEntity
  8
1
  6
Continuous
 62
    15
100
AcDbText
 10
27.66652415692806
 20
29.72316741943359
 30
0.0
 40
2.5
  1
56mm
100
AcDbText
  0
TEXT
  5
4D
330
44
100
AcDbEntity
  8
1
  6
Continuous
 62
    15
100
AcDbText
 10
27.66652415692806
 20
24.72316741943359
 30
0.0
 40
2.5
  1
DOOR
100
AcDbText
  0
LINE
  5
4E
330
44
100
AcDbEntity
  8
1
  6
HIDDEN
 62
    15
100
AcDbLine
 10
-0.0000002413248552
 20
64.1323604674394
 30
0.0
 11
17.18078735141636
 21
59.70761655801438
 31
0.0
  0
LINE
  5
4F
330
44
100
AcDbEntity
  8
1
  6
HIDDEN
 62
    15
100
AcDbLine
 10
17.18078735141636
 20
59.70761655801438
 30
0.0
 11
17.18078735141636
 21
56.14114150528123
 31
0.0
  0
LINE
  5
50
330
44
100
AcDbEntity
  8
1
  6
HIDDEN
 62
    15
100
AcDbLine
 10
17.18078735141636
 20
56.14114150528123
 30
0.0
 11
55.99999975867514
 21
59.70761655801438
 31
0.0
  0
LINE
  5
51
330
44
100
AcDbEntity
  8
1
  6
HIDDEN
 62
    15
100
AcDbLine
 10
-0.0000002413248552
 20
64.1323604674394
 30
0.0
 11
-0.0000002413248552
 21
-0.0000000895057966
 31
0.0
  0
LINE
  5
52
330
44
100
AcDbEntity
  8
1
  6
HIDDEN
 62
    15
100
AcDbLine
 10
-0.0000002413248552
 20
-0.0000000895057966
 30
0.0
 11
55.99999975867514
 21
-0.0000000895058037
 31
0.0
  0
LINE
  5
53
330
44
100
AcDbEntity
  8
1
  6
HIDDEN
 62
    15
100
AcDbLine
 10
55.99999975867514
 20
-0.0000000895058037
 30
0.0
 11
55.99999975867514
 21
59.70761655801438
 31
0.0
  0
ENDBLK
  5
46
330
44
100
AcDbEntity
  8
0
100
AcDbBlockEnd
  0
BLOCK
  5
55
330
54
100
AcDbEntity
  8
0
100
AcDbBlockBegin
  2
GEN_BLOCK00000
 70
     0
 71
     0
 10
0.0
 20
0.0
 30
0.0
  3
GEN_BLOCK00000
  1

  0
LINE
  5
58
330
54
100
AcDbEntity
  8
1
  6
Continuous
 62
    15
100
AcDbLine
 10
44.0000006322852
 20
0.0000000005491785
 30
0.0
 11
44.0000006322852
 21
0.0000000005491785
 31
0.0
  0
LINE
  5
59
330
54
100
AcDbEntity
  8
1
  6
Continuous
 62
    15
100
AcDbLine
 10
44.0000006322852
 20
0.0000000005491785
 30
0.0
 11
44.0000006322852
 21
0.0000000005491785
 31
0.0
  0
LINE
  5
5A
330
54
100
AcDbEntity
  8
1
  6
Continuous
 62
    15
100
AcDbLine
 10
44.0000006322852
 20
0.0000000005491785
 30
0.0
 11
44.0000006322852
 21
0.0000000005491785
 31
0.0
  0
LINE
  5
5B
330
54
100
AcDbEntity
  8
1
  6
Continuous
 62
    15
100
AcDbLine
 10
44.0000006322852
 20
0.0000000005491785
 30
0.0
 11
44.0000006322852
 21
0.0000000005491785
 31
0.0
  0
LINE
  5
5C
330
54
100
AcDbEntity
  8
1
  6
Continuous
 62
    15
100
AcDbLine
 10
0.0000006322852002
 20
0.0000000005491927
 30
0.0
 11
0.0000006322852002
 21
0.0000000005491927
 31
0.0
  0
ENDBLK
  5
56
330
54
100
AcDbEntity
  8
0
100
AcDbBlockEnd
  0
BLOCK
  5
5E
330
5D
100
AcDbEntity
  8
0
100
AcDbBlockBegin
  2
GEN_BLOCK00001
 70
     0
 71
     0
 10
0.0
 20
0.0
 30
0.0
  3
GEN_BLOCK00001
  1

  0
LINE
  5
61
330
5D
100
AcDbEntity
  8
0
  6
Continuous
 62
    15
100
AcDbLine
 10
-0.0000017541280641
 20
-0.0000000415354577
 30
0.0
 11
-0.0000017541280641
 21
-0.0000000415354577
 31
0.0
  0
LINE
  5
62
330
5D
100
AcDbEntity
  8
0
  6
Continuous
 62
    15
100
AcDbLine
 10
-0.0000017541280641
 20
-0.0000000415354577
 30
0.0
 11
-0.0000017541280641
 21
-0.0000000415354577
 31
0.0
  0
LINE
  5
63
330
5D
100
AcDbEntity
  8
0
  6
Continuous
 62
    15
100
AcDbLine
 10
-0.0000017541280641
 20
-0.0000000415354577
 30
0.0
 11
-0.0000017541280641
 21
-0.0000000415354577
 31
0.0
  0
LINE
  5
64
330
5D
100
AcDbEntity
  8
0
  6
Continuous
 62
    15
100
AcDbLine
 10
-0.0000017541280641
 20
-0.0000000415354577
 30
0.0
 11
-0.0000017541280641
 21
-0.0000000415354577
 31
0.0
  0
LINE
  5
65
330
5D
100
AcDbEntity
  8
0
  6
Continuous
 62
    15
100
AcDbLine
 10
-0.0000017541280641
 20
-0.0000000415354577
 30
0.0
 11
-0.0000017541280641
 21
-0.0000000415354577
 31
0.0
  0
LINE
  5
66
330
5D
100
AcDbEntity
  8
0
  6
Continuous
 62
    15
100
AcDbLine
 10
-0.0000017541280641
 20
-0.0000000415354577
 30
0.0
 11
-0.0000017541280641
 21
-0.0000000415354577
 31
0.0
  0
LINE
  5
67
330
5D
100
AcDbEntity
  8
0
  6
Continuous
 62
    15
100
AcDbLine
 10
-0.0000017541280641
 20
-0.0000000415354577
 30
0.0
 11
-0.0000017541280641
 21
-0.0000000415354577
 31
0.0
  0
LINE
  5
68
330
5D
100
AcDbEntity
  8
0
  6
Continuous
 62
    15
100
AcDbLine
 10
-0.0000017541280641
 20
-0.0000000415354577
 30
0.0
 11
-0.0000017541280641
 21
-0.0000000415354577
 31
0.0
  0
LINE
  5
69
330
5D
100
AcDbEntity
  8
0
  6
Continuous
 62
    15
100
AcDbLine
 10
-0.0000017541280641
 20
-0.0000000415354577
 30
0.0
 11
-0.0000017541280641
 21
-0.0000000415354577
 31
0.0
  0
ENDBLK
  5
5F
330
5D
100
AcDbEntity
  8
0
100
AcDbBlockEnd
  0
BLOCK
  5
6B
330
6A
100
AcDbEntity
  8
0
100
AcDbBlockBegin
  2
GEN_BLOCK00002
 70
     0
 71
     0
 10
0.0
 20
0.0
 30
0.0
  3
GEN_BLOCK00002
  1

  0
LINE
  5
6E
330
6A
100
AcDbEntity
  8
1
  6
HIDDEN
 62
    15
100
AcDbLine
 10
0.0000007690617636
 20
-0.0000001444938604
 30
0.0
 11
0.0000007690617636
 21
-0.0000001444938604
 31
0.0
  0
ENDBLK
  5
6C
330
6A
100
AcDbEntity
  8
0
100
AcDbBlockEnd
  0
BLOCK
  5
70
330
6F
100
AcDbEntity
  8
0
100
AcDbBlockBegin
  2
GEN_BLOCK00003
 70
     0
 71
     0
 10
0.0
 20
0.0
 30
0.0
  3
GEN_BLOCK00003
  1

  0
LINE
  5
73
330
6F
100
AcDbEntity
  8
1
  6
Continuous
 62
    15
100
AcDbLine
 10
2.649999819686144
 20
1.000000154998929
 30
0.0
 11
2.444296114008779
 21
1.205703860676295
 31
0.0
  0
LINE
  5
74
330
6F
100
AcDbEntity
  8
1
  6
Continuous
 62
    15
100
AcDbLine
 10
2.367157224379767
 20
1.282842750305307
 30
0.0
 11
2.161453518702402
 21
1.488546455982673
 31
0.0
  0
LINE
  5
75
330
6F
100
AcDbEntity
  8
1
  6
Continuous
 62
    15
100
AcDbLine
 10
2.08431462907339
 20
1.565685345611685
 30
0.0
 11
1.878610923396025
 21
1.771389051289051
 31
0.0
  0
LINE
  5
76
330
6F
100
AcDbEntity
  8
1
  6
Continuous
 62
    15
100
AcDbLine
 10
2.649999895661516
 20
1.000000079023557
 30
0.0
 11
2.649999895661516
 21
1.000000079023557
 31
0.0
  0
LINE
  5
77
330
6F
100
AcDbEntity
  8
1
  6
Continuous
 62
    15
100
AcDbLine
 10
2.08431462907339
 20
1.00000015499893
 30
0.0
 11
1.878610923396025
 21
1.205703860676296
 31
0.0
  0
LINE
  5
78
330
6F
100
AcDbEntity
  8
1
  6
Continuous
 62
    15
100
AcDbLine
 10
2.849999784733637
 20
1.365685380564193
 30
0.0
 11
2.727138709315156
 21
1.488546455982674
 31
0.0
  0
LINE
  5
79
330
6F
100
AcDbEntity
  8
1
  6
Continuous
 62
    15
100
AcDbLine
 10
2.649999819686144
 20
1.565685345611686
 30
0.0
 11
2.465113260084255
 21
1.750571905213575
 31
0.0
  0
LINE
  5
7A
330
6F
100
AcDbEntity
  8
1
  6
Continuous
 62
    15
100
AcDbLine
 10
2.849999784733637
 20
1.931370571176948
 30
0.0
 11
2.727138709315156
 21
2.054231646595429
 31
0.0
  0
LINE
  5
7B
330
6F
100
AcDbEntity
  8
1
  6
Continuous
 62
    15
100
AcDbLine
 10
2.649999819686144
 20
2.131370536224441
 30
0.0
 11
2.649999796654562
 21
2.131370559256023
 31
0.0
  0
LINE
  5
7C
330
6F
100
AcDbEntity
  8
1
  6
Continuous
 62
    15
100
AcDbLine
 10
2.849999784733637
 20
2.497055761789702
 30
0.0
 11
2.727138709315156
 21
2.619916837208184
 31
0.0
  0
LINE
  5
7D
330
6F
100
AcDbEntity
  8
1
  6
Continuous
 62
    15
100
AcDbLine
 10
2.649999819686144
 20
2.697055726837196
 30
0.0
 11
2.649999796654573
 21
2.697055749868768
 31
0.0
  0
LINE
  5
7E
330
6F
100
AcDbEntity
  8
1
  6
Continuous
 62
    15
100
AcDbLine
 10
3.16274065811254
 20
2.750000079023556
 30
0.0
 11
3.009981304621533
 21
2.902759432514563
 31
0.0
  0
LINE
  5
7F
330
6F
100
AcDbEntity
  8
1
  6
Continuous
 62
    15
100
AcDbLine
 10
2.932842414992521
 20
2.979898322143575
 30
0.0
 11
2.912740673013694
 21
3.000000064122403
 31
0.0
  0
LINE
  5
80
330
6F
100
AcDbEntity
  8
1
  6
Continuous
 62
    15
100
AcDbLine
 10
3.576711375524052
 20
2.901714552224795
 30
0.0
 11
3.575666495234284
 21
2.902759432514562
 31
0.0
  0
LINE
  5
81
330
6F
100
AcDbEntity
  8
1
  6
Continuous
 62
    15
100
AcDbLine
 10
2.649999819686137
 20
1.000000154998931
 30
0.0
 11
2.649999743710765
 21
1.000000079023559
 31
0.0
  0
LINE
  5
82
330
6F
100
AcDbEntity
  8
1
  6
Continuous
 62
    15
100
AcDbLine
 10
2.727138709315149
 20
1.077139044627943
 30
0.0
 11
2.849999784733633
 21
1.200000120046427
 31
0.0
  0
LINE
  5
83
330
6F
100
AcDbEntity
  8
1
  6
Continuous
 62
    15
100
AcDbLine
 10
2.36715722437976
 20
1.282842750305308
 30
0.0
 11
2.161453518702395
 21
1.077139044627942
 31
0.0
  0
LINE
  5
84
330
6F
100
AcDbEntity
  8
1
  6
Continuous
 62
    15
100
AcDbLine
 10
2.084314629073383
 20
1.00000015499893
 30
0.0
 11
2.084314553098011
 21
1.000000079023558
 31
0.0
  0
LINE
  5
85
330
6F
100
AcDbEntity
  8
1
  6
Continuous
 62
    15
100
AcDbLine
 10
2.444296114008772
 20
1.35998163993432
 30
0.0
 11
2.649999819686137
 21
1.565685345611686
 31
0.0
  0
LINE
  5
86
330
6F
100
AcDbEntity
  8
1
  6
Continuous
 62
    15
100
AcDbLine
 10
2.727138709315149
 20
1.642824235240698
 30
0.0
 11
2.849999784733633
 21
1.765685310659181
 31
0.0
  0
LINE
  5
87
330
6F
100
AcDbEntity
  8
1
  6
Continuous
 62
    15
100
AcDbLine
 10
3.292823899927903
 20
2.774194616466213
 30
0.0
 11
3.496313512012847
 21
2.977684228551155
 31
0.0
  0
LINE
  5
88
330
6F
100
AcDbEntity
  8
1
  6
Continuous
 62
    15
100
AcDbLine
 10
2.649999796654555
 20
2.13137051319286
 30
0.0
 11
2.649999819686141
 21
2.131370536224445
 31
0.0
  0
LINE
  5
89
330
6F
100
AcDbEntity
  8
1
  6
Continuous
 62
    15
100
AcDbLine
 10
2.727138709315152
 20
2.208509425853457
 30
0.0
 11
2.849999784733633
 21
2.331370501271939
 31
0.0
  0
LINE
  5
8A
330
6F
100
AcDbEntity
  8
1
  6
Continuous
 62
    15
100
AcDbLine
 10
2.084314629073383
 20
1.565685345611689
 30
0.0
 11
1.878610923396018
 21
1.359981639934323
 31
0.0
  0
LINE
  5
8B
330
6F
100
AcDbEntity
  8
1
  6
Continuous
 62
    15
100
AcDbLine
 10
2.161453518702395
 20
1.642824235240701
 30
0.0
 11
2.27438065985347
 21
1.755751376391779
 31
0.0
  0
LINE
  5
8C
330
6F
100
AcDbEntity
  8
1
  6
Continuous
 62
    15
100
AcDbLine
 10
2.649999796654562
 20
2.697055703805622
 30
0.0
 11
2.649999819686141
 21
2.6970557268372
 31
0.0
  0
LINE
  5
8D
330
6F
100
AcDbEntity
  8
1
  6
Continuous
 62
    15
100
AcDbLine
 10
2.727138709315152
 20
2.774194616466212
 30
0.0
 11
2.932842414992518
 21
2.979898322143578
 31
0.0
  0
LINE
  5
8E
330
6F
100
AcDbEntity
  8
1
  6
Continuous
 62
    15
100
AcDbLine
 10
2.952944156971341
 20
3.000000064122402
 30
0.0
 11
2.952944156971341
 21
3.000000064122402
 31
0.0
  0
LINE
  5
8F
330
6F
100
AcDbEntity
  8
1
  6
Continuous
 62
    15
100
AcDbLine
 10
1.878610923396018
 20
1.925666830547078
 30
0.0
 11
1.93064880183416
 21
1.97770470898522
 31
0.0
  0
LINE
  5
90
330
6F
100
AcDbEntity
  8
1
  6
Continuous
 62
    15
100
AcDbLine
 10
3.39999982115571
 20
5.250000079023556
 30
0.0
 11
3.547055403445334
 21
5.10294449673393
 31
0.0
  0
LINE
  5
91
330
6F
100
AcDbEntity
  8
1
  6
Continuous
 62
    15
100
AcDbLine
 10
3.563349448374208
 20
5.086650451805059
 30
0.0
 11
3.563349448374208
 21
5.086650451805059
 31
0.0
  0
LINE
  5
92
330
6F
100
AcDbEntity
  8
1
  6
Continuous
 62
    15
100
AcDbLine
 10
2.399999787628097
 20
6.250000112551177
 30
0.0
 11
2.415685022219829
 21
6.234314877959447
 31
0.0
  0
LINE
  5
93
330
6F
100
AcDbEntity
  8
1
  6
Continuous
 62
    15
100
AcDbLine
 10
2.492823911848841
 20
6.157175988330435
 30
0.0
 11
2.698527617526207
 21
5.951472282653068
 31
0.0
  0
LINE
  5
94
330
6F
100
AcDbEntity
  8
1
  6
Continuous
 62
    15
100
AcDbLine
 10
2.775666507155218
 20
5.874333393024056
 30
0.0
 11
2.849999784733637
 21
5.800000115445638
 31
0.0
  0
LINE
  5
95
330
6F
100
AcDbEntity
  8
1
  6
Continuous
 62
    15
100
AcDbLine
 10
2.649999796654562
 20
5.434314912911951
 30
0.0
 11
2.698527617526203
 21
5.38578709204031
 31
0.0
  0
LINE
  5
96
330
6F
100
AcDbEntity
  8
1
  6
Continuous
 62
    15
100
AcDbLine
 10
2.775666507155215
 20
5.308648202411298
 30
0.0
 11
2.98137021283258
 21
5.102944496733932
 31
0.0
  0
LINE
  5
97
330
6F
100
AcDbEntity
  8
1
  6
Continuous
 62
    15
100
AcDbLine
 10
3.058509102461592
 20
5.02580560710492
 30
0.0
 11
3.084314615641794
 21
5.000000093924718
 31
0.0
  0
LINE
  5
98
330
6F
100
AcDbEntity
  8
1
  6
Continuous
 62
    15
100
AcDbLine
 10
1.84999978473364
 20
6.234314924832878
 30
0.0
 11
1.849999831607072
 21
6.234314877959445
 31
0.0
  0
LINE
  5
99
330
6F
100
AcDbEntity
  8
1
  6
Continuous
 62
    15
100
AcDbLine
 10
1.927138721236084
 20
6.157175988330433
 30
0.0
 11
1.98869079617792
 21
6.095623913388597
 31
0.0
  0
LINE
  5
9A
330
6F
100
AcDbEntity
  8
1
  6
Continuous
 62
    15
100
AcDbLine
 10
2.215685011768471
 20
7.000000079023556
 30
0.0
 11
2.415685022219826
 21
6.800000068572201
 31
0.0
  0
LINE
  5
9B
330
6F
100
AcDbEntity
  8
1
  6
Continuous
 62
    15
100
AcDbLine
 10
2.492823911848838
 20
6.722861178943189
 30
0.0
 11
2.698527617526203
 21
6.517157473265822
 31
0.0
  0
LINE
  5
9C
330
6F
100
AcDbEntity
  8
1
  6
Continuous
 62
    15
100
AcDbLine
 10
2.775666507155215
 20
6.44001858363681
 30
0.0
 11
2.849999784733633
 21
6.365685306058392
 31
0.0
  0
LINE
  5
9D
330
6F
100
AcDbEntity
  8
1
  6
Continuous
 62
    15
100
AcDbLine
 10
1.849999831607064
 20
6.800000068572203
 30
0.0
 11
1.849999784733633
 21
6.800000021698773
 31
0.0
  0
LINE
  5
9E
330
6F
100
AcDbEntity
  8
1
  6
Continuous
 62
    15
100
AcDbLine
 10
1.927138721236076
 20
6.877138958201215
 30
0.0
 11
2.049999842058419
 21
7.000000079023559
 31
0.0
  0
LINE
  5
9F
330
6F
100
AcDbEntity
  8
1
  6
Continuous
 62
    15
100
AcDbLine
 10
2.132842426913442
 20
6.517157473265826
 30
0.0
 11
1.927138721236076
 21
6.311453767588461
 31
0.0
  0
LINE
  5
A0
330
6F
100
AcDbEntity
  8
1
  6
Continuous
 62
    15
100
AcDbLine
 10
1.849999831607064
 20
6.234314877959449
 30
0.0
 11
1.849999784733633
 21
6.234314831086019
 31
0.0
  0
LINE
  5
A1
330
6F
100
AcDbEntity
  8
1
  6
Continuous
 62
    15
100
AcDbLine
 10
2.209981316542454
 20
6.594296362894838
 30
0.0
 11
2.415685022219819
 21
6.800000068572203
 31
0.0
  0
LINE
  5
A2
330
6F
100
AcDbEntity
  8
1
  6
Continuous
 62
    15
100
AcDbLine
 10
2.492823911848831
 20
6.877138958201215
 30
0.0
 11
2.615685032671173
 21
7.000000079023556
 31
0.0
  0
LINE
  5
A3
330
6F
100
AcDbEntity
  8
1
  6
Continuous
 62
    15
100
AcDbLine
 10
2.492823911848834
 20
6.311453767588461
 30
0.0
 11
2.698527617526199
 21
6.517157473265826
 31
0.0
  0
LINE
  5
A4
330
6F
100
AcDbEntity
  8
1
  6
Continuous
 62
    15
100
AcDbLine
 10
2.775666507155211
 20
6.594296362894838
 30
0.0
 11
2.849999784733633
 21
6.668629640473259
 31
0.0
  0
LINE
  5
A5
330
6F
100
AcDbEntity
  8
1
  6
Continuous
 62
    15
100
AcDbLine
 10
2.698527617526199
 20
5.951472282653068
 30
0.0
 11
2.649999796654544
 21
5.902944461781415
 31
0.0
  0
LINE
  5
A6
330
6F
100
AcDbEntity
  8
1
  6
Continuous
 62
    15
100
AcDbLine
 10
2.775666507155211
 20
6.02861117228208
 30
0.0
 11
2.849999784733633
 21
6.102944449860502
 31
0.0
  0
LINE
  5
A7
330
6F
100
AcDbEntity
  8
1
  6
Continuous
 62
    15
100
AcDbLine
 10
2.849999784733637
 20
5.537259259247747
 30
0.0
 11
2.775666507155215
 21
5.462925981669324
 31
0.0
  0
LINE
  5
A8
330
6F
100
AcDbEntity
  8
1
  6
Continuous
 62
    15
100
AcDbLine
 10
2.698527617526203
 20
5.385787092040312
 30
0.0
 11
2.649999796654562
 21
5.337259271168671
 31
0.0
  0
LINE
  5
A9
330
6F
100
AcDbEntity
  8
1
  6
Continuous
 62
    15
100
AcDbLine
 10
3.128425795122205
 20
5.25000007902356
 30
0.0
 11
3.058509102461592
 21
5.180083386362948
 31
0.0
  0
LINE
  5
AA
330
6F
100
AcDbEntity
  8
1
  6
Continuous
 62
    15
100
AcDbLine
 10
2.98137021283258
 20
5.102944496733936
 30
0.0
 11
2.878425810023366
 21
5.00000009392472
 31
0.0
  0
LINE
  5
AB
330
6F
100
AcDbEntity
  8
1
  6
Continuous
 62
    15
100
AcDbLine
 10
3.547055403445334
 20
5.102944496733937
 30
0.0
 11
3.451144565435605
 21
5.007033658724207
 31
0.0
  0
LINE
  5
AC
330
6F
100
AcDbEntity
  8
1
  6
Continuous
 62
    15
100
AcDbLine
 10
3.59220266696488
 20
5.148091760253481
 30
0.0
 11
3.59220266696488
 21
5.148091760253481
 31
0.0
  0
LINE
  5
AD
330
6F
100
AcDbEntity
  8
1
  6
Continuous
 62
    15
100
AcDbLine
 10
1.84999978473364
 20
2.750000157168875
 30
0.0
 11
2.649999796654559
 21
1.950000145247959
 31
0.0
  0
LINE
  5
AE
330
6F
100
AcDbEntity
  8
1
  6
Continuous
 62
    15
100
AcDbLine
 10
1.84999978473364
 20
3.881371023926091
 30
0.0
 11
2.755242692361076
 21
2.976128116298656
 31
0.0
  0
LINE
  5
AF
330
6F
100
AcDbEntity
  8
1
  6
Continuous
 62
    15
100
AcDbLine
 10
1.84999978473364
 20
5.012741890683307
 30
0.0
 11
3.396862862773911
 21
3.465878812643036
 31
0.0
  0
LINE
  5
B0
330
6F
100
AcDbEntity
  8
1
  6
Continuous
 62
    15
100
AcDbLine
 10
1.947489281630951
 20
6.046623260543209
 30
0.0
 11
2.649999796654573
 21
5.344112745519586
 31
0.0
  0
LINE
  5
B1
330
6F
100
AcDbEntity
  8
1
  6
Continuous
 62
    15
100
AcDbLine
 10
2.994112448249435
 20
5.000000093924724
 30
0.0
 11
3.401688143123806
 21
4.592424399050353
 31
0.0
  0
LINE
  5
B2
330
6F
100
AcDbEntity
  8
1
  6
Continuous
 62
    15
100
AcDbLine
 10
4.569999825264794
 20
8.00000013862821
 30
0.0
 11
15.7415746900495
 21
14.820112641361
 31
0.0
  0
ARC
  5
B3
330
6F
100
AcDbEntity
  8
1
  6
Continuous
 62
    15
100
AcDbCircle
 10
15.94999978473363
 20
14.47870528949829
 30
0.0
 40
0.3999999999999978
100
AcDbArc
 50
301.4035648056336
 51
121.4035648056326
  0
LINE
  5
B4
330
6F
100
AcDbEntity
  8
1
  6
Continuous
 62
    15
100
AcDbLine
 10
16.15842487941778
 20
14.13729793763559
 30
0.0
 11
10.34583293409078
 21
10.58878025061093
 31
0.0
  0
ARC
  5
B5
330
6F
100
AcDbEntity
  8
1
  6
Continuous
 62
    15
100
AcDbCircle
 10
9.09999978473364
 20
8.71517416502013
 30
0.0
 40
2.25
100
AcDbArc
 50
341.2610915308524
 51
56.37853017329314
  0
ARC
  5
B6
330
6F
100
AcDbEntity
  8
1
  6
Continuous
 62
    15
100
AcDbCircle
 10
-7.709114200623645
 20
14.41747080999278
 30
0.0
 40
20.0
100
AcDbArc
 50
317.7260252640424
 51
341.2610915308523
  0
LINE
  5
B7
330
6F
100
AcDbEntity
  8
1
  6
Continuous
 62
    15
100
AcDbLine
 10
5.166312380713023
 20
7.426745057559941
 30
0.0
 11
9.53997272442534
 21
10.09681225523734
 31
0.0
  0
ARC
  5
B8
330
6F
100
AcDbEntity
  8
1
  6
Continuous
 62
    15
100
AcDbCircle
 10
9.09999978473364
 20
8.71517416502013
 30
0.0
 40
1.45
100
AcDbArc
 50
341.2610915308522
 51
72.33628937978912
  0
ARC
  5
B9
330
6F
100
AcDbEntity
  8
1
  6
Continuous
 62
    15
100
AcDbCircle
 10
-7.709114200623645
 20
14.41747080999278
 30
0.0
 40
19.2
100
AcDbArc
 50
320.2523331915361
 51
341.2610915308523
  0
LINE
  5
BA
330
6F
100
AcDbEntity
  8
1
  6
Continuous
 62
    15
100
AcDbLine
 10
3.627142661971767
 20
5.250000079023557
 30
0.0
 11
3.049999784733636
 21
5.250000079023557
 31
0.0
  0
LINE
  5
BB
330
6F
100
AcDbEntity
  8
1
  6
Continuous
 62
    15
100
AcDbLine
 10
2.84999978473364
 20
5.450000079023553
 30
0.0
 11
2.84999978473364
 21
6.800000079023562
 31
0.0
  0
LINE
  5
BC
330
6F
100
AcDbEntity
  8
1
  6
Continuous
 62
    15
100
AcDbLine
 10
2.649999784733637
 20
7.000000079023557
 30
0.0
 11
2.049999784733636
 21
7.000000079023557
 31
0.0
  0
LINE
  5
BD
330
6F
100
AcDbEntity
  8
1
  6
Continuous
 62
    15
100
AcDbLine
 10
1.84999978473364
 20
6.800000079023562
 30
0.0
 11
1.84999978473364
 21
1.20000007902356
 31
0.0
  0
LINE
  5
BE
330
6F
100
AcDbEntity
  8
1
  6
Continuous
 62
    15
100
AcDbLine
 10
2.049999784733636
 20
1.000000079023557
 30
0.0
 11
2.649999784733637
 21
1.000000079023557
 31
0.0
  0
LINE
  5
BF
330
6F
100
AcDbEntity
  8
1
  6
Continuous
 62
    15
100
AcDbLine
 10
2.84999978473364
 20
1.20000007902356
 30
0.0
 11
2.84999978473364
 21
2.550000079023562
 31
0.0
  0
LINE
  5
C0
330
6F
100
AcDbEntity
  8
1
  6
Continuous
 62
    15
100
AcDbLine
 10
3.049999784733636
 20
2.750000079023557
 30
0.0
 11
3.631339085669566
 21
2.750000079023557
 31
0.0
  0
ARC
  5
C1
330
6F
100
AcDbEntity
  8
1
  6
Continuous
 62
    15
100
AcDbCircle
 10
2.649999784733637
 20
1.20000007902356
 30
0.0
 40
0.2
100
AcDbArc
 50
270.0
 51
0.0
  0
ARC
  5
C2
330
6F
100
AcDbEntity
  8
1
  6
Continuous
 62
    15
100
AcDbCircle
 10
3.049999784733636
 20
2.550000079023562
 30
0.0
 40
0.2
100
AcDbArc
 50
90.0
 51
180.0
  0
ARC
  5
C3
330
6F
100
AcDbEntity
  8
1
  6
Continuous
 62
    15
100
AcDbCircle
 10
3.049999784733636
 20
5.450000079023553
 30
0.0
 40
0.2
100
AcDbArc
 50
180.0
 51
270.0
  0
ARC
  5
C4
330
6F
100
AcDbEntity
  8
1
  6
Continuous
 62
    15
100
AcDbCircle
 10
2.649999784733637
 20
6.800000079023562
 30
0.0
 40
0.2
100
AcDbArc
 50
0.0
 51
90.0
  0
ARC
  5
C5
330
6F
100
AcDbEntity
  8
1
  6
Continuous
 62
    15
100
AcDbCircle
 10
2.049999784733636
 20
6.800000079023562
 30
0.0
 40
0.2
100
AcDbArc
 50
90.0
 51
180.0
  0
ARC
  5
C6
330
6F
100
AcDbEntity
  8
1
  6
Continuous
 62
    15
100
AcDbCircle
 10
2.049999784733636
 20
1.20000007902356
 30
0.0
 40
0.2
100
AcDbArc
 50
180.0
 51
270.0
  0
LINE
  5
C7
330
6F
100
AcDbEntity
  8
1
  6
Continuous
 62
    15
100
AcDbLine
 10
5.191714156658435
 20
7.500833570734045
 30
0.0
 11
3.991428388071981
 21
4.000000079023565
 31
0.0
  0
LINE
  5
C8
330
6F
100
AcDbEntity
  8
1
  6
Continuous
 62
    15
100
AcDbLine
 10
-0.000000242833508
 20
5.000000093924712
 30
0.0
 11
-0.000000242833508
 21
5.000000093924712
 31
0.0
  0
LINE
  5
C9
330
6F
100
AcDbEntity
  8
1
  6
Continuous
 62
    15
100
AcDbLine
 10
-0.000000242833508
 20
5.000000093924712
 30
0.0
 11
-0.000000242833508
 21
5.000000093924712
 31
0.0
  0
LINE
  5
CA
330
6F
100
AcDbEntity
  8
1
  6
Continuous
 62
    15
100
AcDbLine
 10
-0.000000242833508
 20
5.000000093924712
 30
0.0
 11
-0.000000242833508
 21
5.000000093924712
 31
0.0
  0
LINE
  5
CB
330
6F
100
AcDbEntity
  8
1
  6
Continuous
 62
    15
100
AcDbLine
 10
-0.000000242833508
 20
5.000000093924712
 30
0.0
 11
-0.000000242833508
 21
5.000000093924712
 31
0.0
  0
LINE
  5
CC
330
6F
100
AcDbEntity
  8
1
  6
Continuous
 62
    15
100
AcDbLine
 10
-0.000000242833508
 20
5.000000093924712
 30
0.0
 11
-0.000000242833508
 21
5.000000093924712
 31
0.0
  0
LINE
  5
CD
330
6F
100
AcDbEntity
  8
1
  6
Continuous
 62
    15
100
AcDbLine
 10
-0.000000242833508
 20
5.000000093924712
 30
0.0
 11
-0.000000242833508
 21
5.000000093924712
 31
0.0
  0
LINE
  5
CE
330
6F
100
AcDbEntity
  8
1
  6
Continuous
 62
    15
100
AcDbLine
 10
-0.000000242833508
 20
5.000000093924712
 30
0.0
 11
-0.000000242833508
 21
5.000000093924712
 31
0.0
  0
LINE
  5
CF
330
6F
100
AcDbEntity
  8
1
  6
Continuous
 62
    15
100
AcDbLine
 10
-0.000000242833508
 20
5.000000093924712
 30
0.0
 11
-0.000000242833508
 21
5.000000093924712
 31
0.0
  0
LINE
  5
D0
330
6F
100
AcDbEntity
  8
1
  6
Continuous
 62
    15
100
AcDbLine
 10
3.594572150883259
 20
2.862253110008297
 30
0.0
 11
4.419270947113304
 21
0.3443674047041583
 31
0.0
  0
LINE
  5
D1
330
6F
100
AcDbEntity
  8
1
  6
Continuous
 62
    15
100
AcDbLine
 10
4.894432492662304
 20
0.0000000194189056
 30
0.0
 11
5.812277503944557
 21
0.0000000194189056
 31
0.0
  0
ARC
  5
D2
330
6F
100
AcDbEntity
  8
1
  6
Continuous
 62
    15
100
AcDbCircle
 10
2.649999796654576
 20
5.000000093924726
 30
0.0
 40
6.000000089406967
100
AcDbArc
 50
305.0968012275845
 51
317.7260252640424
  0
LINE
  5
D3
330
6F
100
AcDbEntity
  8
1
  6
Continuous
 62
    15
100
AcDbLine
 10
4.569999825264794
 20
8.00000013862821
 30
0.0
 11
3.587760428388904
 21
5.135135231073534
 31
0.0
  0
LINE
  5
D4
330
6F
100
AcDbEntity
  8
1
  6
Continuous
 62
    15
100
AcDbLine
 10
1.84999978473364
 20
5.750000105100582
 30
0.0
 11
1.84999978473364
 21
2.250000052946532
 31
0.0
  0
LINE
  5
D5
330
6F
100
AcDbEntity
  8
1
  6
Continuous
 62
    15
100
AcDbLine
 10
5.075616867556775
 20
0.7500000305947765
 30
0.0
 11
5.73220684406752
 21
0.7500000305947765
 31
0.0
  0
ARC
  5
D6
330
6F
100
AcDbEntity
  8
1
  6
Continuous
 62
    15
100
AcDbCircle
 10
2.649999796654576
 20
5.000000093924726
 30
0.0
 40
5.250000078231096
100
AcDbArc
 50
305.9505676196178
 51
327.0025763907773
  0
LINE
  5
D7
330
6F
100
AcDbEntity
  8
1
  6
Continuous
 62
    15
100
AcDbLine
 10
5.017045707314409
 20
6.991383926813924
 30
0.0
 11
3.991428388071981
 21
4.000000079023565
 31
0.0
  0
LINE
  5
D8
330
6F
100
AcDbEntity
  8
1
  6
Continuous
 62
    15
100
AcDbLine
 10
3.991428388071981
 20
4.000000079023565
 30
0.0
 11
5.075616867556775
 21
0.7500000305947765
 31
0.0
  0
ARC
  5
D9
330
6F
100
AcDbEntity
  8
1
  6
Continuous
 62
    15
100
AcDbCircle
 10
5.812277503944557
 20
0.5000000268695004
 30
0.0
 40
0.5000000074505806
100
AcDbArc
 50
270.0
 51
305.0968012275843
  0
ARC
  5
DA
330
6F
100
AcDbEntity
  8
1
  6
Continuous
 62
    15
100
AcDbCircle
 10
4.894432492662304
 20
0.5000000268694862
 30
0.0
 40
0.5000000074505806
100
AcDbArc
 50
198.1354962559058
 51
270.0
  0
LINE
  5
DB
330
6F
100
AcDbEntity
  8
1
  6
HIDDEN
 62
    15
100
AcDbLine
 10
3.587760428388904
 20
5.135135231073534
 30
0.0
 11
3.210511802689354
 21
4.034826739449855
 31
0.0
  0
LINE
  5
DC
330
6F
100
AcDbEntity
  8
1
  6
HIDDEN
 62
    15
100
AcDbLine
 10
3.210511802689354
 20
4.034826739449855
 30
0.0
 11
3.594572150883252
 21
2.862253110008297
 31
0.0
  0
ENDBLK
  5
71
330
6F
100
AcDbEntity
  8
0
100
AcDbBlockEnd
  0
BLOCK
  5
DE
330
DD
100
AcDbEntity
  8
0
100
AcDbBlockBegin
  2
GEN_BLOCK00004
 70
     0
 71
     0
 10
0.0
 20
0.0
 30
0.0
  3
GEN_BLOCK00004
  1

  0
LINE
  5
E1
330
DD
100
AcDbEntity
  8
1
  6
Continuous
 62
    15
100
AcDbLine
 10
29.95006253310025
 20
6.503082177413621
 30
0.0
 11
29.22741353310236
 21
6.503082177413621
 31
0.0
  0
ARC
  5
E2
330
DD
100
AcDbEntity
  8
1
  6
Continuous
 62
    15
100
AcDbCircle
 10
28.32741353310236
 20
6.503082177413621
 30
0.0
 40
0.9
100
AcDbArc
 50
180.0
 51
0.0
  0
LINE
  5
E3
330
DD
100
AcDbEntity
  8
1
  6
Continuous
 62
    15
100
AcDbLine
 10
27.42741353310235
 20
6.503082177413621
 30
0.0
 11
27.02741353310235
 21
6.503082177413621
 31
0.0
  0
ARC
  5
E4
330
DD
100
AcDbEntity
  8
1
  6
Continuous
 62
    15
100
AcDbCircle
 10
26.12741353310234
 20
6.503082177413621
 30
0.0
 40
0.9
100
AcDbArc
 50
180.0
 51
0.0
  0
LINE
  5
E5
330
DD
100
AcDbEntity
  8
1
  6
Continuous
 62
    15
100
AcDbLine
 10
25.22741353310236
 20
6.503082177413621
 30
0.0
 11
24.82741353310236
 21
6.503082177413621
 31
0.0
  0
ARC
  5
E6
330
DD
100
AcDbEntity
  8
1
  6
Continuous
 62
    15
100
AcDbCircle
 10
23.92741353310235
 20
6.503082177413621
 30
0.0
 40
0.9
100
AcDbArc
 50
180.0
 51
0.0
  0
ARC
  5
E7
330
DD
100
AcDbEntity
  8
1
  6
Continuous
 62
    15
100
AcDbCircle
 10
23.5274135331038
 20
6.503082177413621
 30
0.0
 40
2.5
100
AcDbArc
 50
216.9582517534176
 51
233.1301023541559
  0
LINE
  5
E8
330
DD
100
AcDbEntity
  8
1
  6
Continuous
 62
    15
100
AcDbLine
 10
45.65536630835884
 20
3.12710803500309
 30
0.0
 11
45.17741353310161
 21
2.649155259745861
 31
0.0
  0
LINE
  5
E9
330
DD
100
AcDbEntity
  8
1
  6
Continuous
 62
    15
100
AcDbLine
 10
45.17741353310161
 20
2.649155259745861
 30
0.0
 11
44.65200376684002
 21
3.174565026007471
 31
0.0
  0
LINE
  5
EA
330
DD
100
AcDbEntity
  8
1
  6
Continuous
 62
    15
100
AcDbLine
 10
43.40536630835886
 20
3.233528421793906
 30
0.0
 11
42.92741353310161
 21
2.755575646536684
 31
0.0
  0
LINE
  5
EB
330
DD
100
AcDbEntity
  8
1
  6
Continuous
 62
    15
100
AcDbLine
 10
42.92741353310161
 20
2.755575646536684
 30
0.0
 11
42.40200376684
 21
3.280985412798302
 31
0.0
  0
LINE
  5
EC
330
DD
100
AcDbEntity
  8
1
  6
Continuous
 62
    15
100
AcDbLine
 10
41.15536630835886
 20
3.339948808584737
 30
0.0
 11
40.67741353310161
 21
2.8619960333275
 31
0.0
  0
LINE
  5
ED
330
DD
100
AcDbEntity
  8
1
  6
Continuous
 62
    15
100
AcDbLine
 10
40.67741353310161
 20
2.8619960333275
 30
0.0
 11
40.15200376684
 21
3.387405799589104
 31
0.0
  0
LINE
  5
EE
330
DD
100
AcDbEntity
  8
1
  6
Continuous
 62
    15
100
AcDbLine
 10
78.37430192831167
 20
1.079010502737006
 30
0.0
 11
78.3123337714402
 21
0.0030821784140613
 31
0.0
  0
LINE
  5
EF
330
DD
100
AcDbEntity
  8
1
  6
Continuous
 62
    15
100
AcDbLine
 10
78.3123337714402
 20
0.0030821784140613
 30
0.0
 11
69.37288509664363
 21
0.0030821784140613
 31
0.0
  0
LINE
  5
F0
330
DD
100
AcDbEntity
  8
1
  6
Continuous
 62
    15
100
AcDbLine
 10
69.37288509664363
 20
0.0030821784140613
 30
0.0
 11
32.55785914695936
 21
1.744102902779289
 31
0.0
  0
ARC
  5
F1
330
DD
100
AcDbEntity
  8
1
  6
Continuous
 62
    15
100
AcDbCircle
 10
32.69959454672976
 20
4.740752878410731
 30
0.0
 40
3.0
100
AcDbArc
 50
207.2864386612501
 51
267.2920452185155
  0
ARC
  5
F2
330
DD
100
AcDbEntity
  8
1
  6
Continuous
 62
    15
100
AcDbCircle
 10
32.69959454672976
 20
4.740752878410731
 30
0.0
 40
3.0
100
AcDbArc
 50
200.9316563747255
 51
207.2864386612501
  0
ARC
  5
F3
330
DD
100
AcDbEntity
  8
1
  6
Continuous
 62
    15
100
AcDbCircle
 10
29.4120871112513
 20
3.483294186675074
 30
0.0
 40
0.5197879907385462
100
AcDbArc
 50
20.93165637472556
 51
187.0808216584699
  0
LINE
  5
F4
330
DD
100
AcDbEntity
  8
1
  6
Continuous
 62
    15
100
AcDbLine
 10
21.52972901529397
 20
4.999999821951086
 30
0.0
 11
13.49999910580851
 21
4.999999821951093
 31
0.0
  0
ARC
  5
F5
330
DD
100
AcDbEntity
  8
1
  6
Continuous
 62
    15
100
AcDbCircle
 10
70.37469210580645
 20
1.015394821949613
 30
0.0
 40
6.5
100
AcDbArc
 50
11.19196555301414
 51
60.00000000000173
  0
ARC
  5
F6
330
DD
100
AcDbEntity
  8
1
  6
Continuous
 62
    15
100
AcDbCircle
 10
76.26058640208254
 20
2.179975576166854
 30
0.0
 40
0.5
100
AcDbArc
 50
266.0000356691103
 51
11.19196555305136
  0
LINE
  5
F7
330
DD
100
AcDbEntity
  8
1
  6
Continuous
 62
    15
100
AcDbLine
 10
73.62469210580645
 20
6.644559821949898
 30
0.0
 11
70.5246921058079
 21
8.434345821951084
 31
0.0
  0
ARC
  5
F8
330
DD
100
AcDbEntity
  8
1
  6
Continuous
 62
    15
100
AcDbCircle
 10
70.67469210580936
 20
8.69415282194963
 30
0.0
 40
0.3
100
AcDbArc
 50
87.76713200028803
 51
239.9999999996614
  0
ARC
  5
F9
330
DD
100
AcDbEntity
  8
1
  6
Continuous
 62
    15
100
AcDbCircle
 10
70.37469210580645
 20
0.9999998219510786
 30
0.0
 40
8.0
100
AcDbArc
 50
0.5658815179755478
 51
87.7671320000126
  0
LINE
  5
FA
330
DD
100
AcDbEntity
  8
1
  6
Continuous
 62
    15
100
AcDbLine
 10
10.99999910580851
 20
12.2665368219506
 30
0.0
 11
10.99999910580851
 21
-0.0000001780489072
 31
0.0
  0
LINE
  5
FB
330
DD
100
AcDbEntity
  8
1
  6
Continuous
 62
    15
100
AcDbLine
 10
26.89229912051273
 20
3.503082177415436
 30
0.0
 11
26.89229912051273
 21
0.0030821774154361
 31
0.0
  0
LINE
  5
FC
330
DD
100
AcDbEntity
  8
1
  6
Continuous
 62
    15
100
AcDbLine
 10
28.89229912051273
 20
3.503082177413617
 30
0.0
 11
28.89229912051273
 21
0.0030821774154361
 31
0.0
  0
LINE
  5
FD
330
DD
100
AcDbEntity
  8
1
  6
Continuous
 62
    15
100
AcDbLine
 10
10.99999910580851
 20
-0.0000001780489072
 30
0.0
 11
12.99999910580851
 21
-0.0000001780489072
 31
0.0
  0
LINE
  5
FE
330
DD
100
AcDbEntity
  8
1
  6
Continuous
 62
    15
100
AcDbLine
 10
12.99999910580851
 20
-0.0000001780489072
 30
0.0
 11
12.99999910580851
 21
4.499999821951093
 31
0.0
  0
LINE
  5
FF
330
DD
100
AcDbEntity
  8
1
  6
Continuous
 62
    15
100
AcDbLine
 10
14.3900641058081
 20
9.36225282195041
 30
0.0
 11
15.16378710580652
 21
6.999999821951082
 31
0.0
  0
ARC
  5
100
330
DD
100
AcDbEntity
  8
1
  6
Continuous
 62
    15
100
AcDbCircle
 10
23.5274135331038
 20
6.503082177413621
 30
0.0
 40
2.5
100
AcDbArc
 50
233.130102000015
 51
270.0
  0
LINE
  5
101
330
DD
100
AcDbEntity
  8
1
  6
Continuous
 62
    15
100
AcDbLine
 10
15.16378710580652
 20
6.999999821951082
 30
0.0
 11
22.52741692629046
 21
6.999999821951082
 31
0.0
  0
LINE
  5
102
330
DD
100
AcDbEntity
  8
1
  6
Continuous
 62
    15
100
AcDbLine
 10
31.83356899711548
 20
4.2407531309956
 30
0.0
 11
30.81608853310358
 21
6.003082177413617
 31
0.0
  0
ARC
  5
103
330
DD
100
AcDbEntity
  8
1
  6
Continuous
 62
    15
100
AcDbCircle
 10
32.69959454672976
 20
4.740752878410731
 30
0.0
 40
1.0
100
AcDbArc
 50
209.9999832890323
 51
266.0000356693193
  0
ARC
  5
104
330
DD
100
AcDbEntity
  8
1
  6
Continuous
 62
    15
100
AcDbCircle
 10
29.95006253310025
 20
5.503082177413617
 30
0.0
 40
1.0
100
AcDbArc
 50
29.99999999995777
 51
90.0
  0
ARC
  5
105
330
DD
100
AcDbEntity
  8
1
  6
Continuous
 62
    15
100
AcDbCircle
 10
29.39229912051273
 20
3.503082177413617
 30
0.0
 40
0.5
100
AcDbArc
 50
90.0
 51
180.0
  0
LINE
  5
106
330
DD
100
AcDbEntity
  8
1
  6
Continuous
 62
    15
100
AcDbLine
 10
26.39229912051273
 20
4.003082177413624
 30
0.0
 11
23.5274135331038
 21
4.003082177413624
 31
0.0
  0
ARC
  5
107
330
DD
100
AcDbEntity
  8
1
  6
Continuous
 62
    15
100
AcDbCircle
 10
26.39229912051273
 20
3.503082177413617
 30
0.0
 40
0.5
100
AcDbArc
 50
0.0
 51
90.0
  0
LINE
  5
108
330
DD
100
AcDbEntity
  8
1
  6
Continuous
 62
    15
100
AcDbLine
 10
14.49999910580851
 20
14.99999982195108
 30
0.0
 11
11.24999910580851
 21
14.99999982195108
 31
0.0
  0
ARC
  5
109
330
DD
100
AcDbEntity
  8
1
  6
Continuous
 62
    15
100
AcDbCircle
 10
11.99083510580936
 20
3.040975821951321
 30
0.0
 40
12.0
100
AcDbArc
 50
160.5044179999866
 51
177.7124260000027
  0
ARC
  5
10A
330
DD
100
AcDbEntity
  8
1
  6
Continuous
 62
    15
100
AcDbCircle
 10
11.99083510580936
 20
3.040975821951321
 30
0.0
 40
12.0
100
AcDbArc
 50
139.5408320000347
 51
158.1170510000027
  0
ARC
  5
10B
330
DD
100
AcDbEntity
  8
1
  6
Continuous
 62
    15
100
AcDbCircle
 10
11.99083510580936
 20
3.040975821951321
 30
0.0
 40
12.0
100
AcDbArc
 50
118.0687070000118
 51
137.1534649999526
  0
ARC
  5
10C
330
DD
100
AcDbEntity
  8
1
  6
Continuous
 62
    15
100
AcDbCircle
 10
11.99083510580936
 20
3.040975821951321
 30
0.0
 40
12.0
100
AcDbArc
 50
95.92996600012535
 51
115.6813389999351
  0
ARC
  5
10D
330
DD
100
AcDbEntity
  8
1
  6
Continuous
 62
    15
100
AcDbCircle
 10
11.99083510580936
 20
3.040975821951321
 30
0.0
 40
12.0
100
AcDbArc
 50
95.92996600012535
 51
115.6813389999351
  0
ARC
  5
10E
330
DD
100
AcDbEntity
  8
1
  6
Continuous
 62
    15
100
AcDbCircle
 10
11.99083510580936
 20
3.040975821951321
 30
0.0
 40
12.0
100
AcDbArc
 50
118.0687070000118
 51
137.1534649999526
  0
ARC
  5
10F
330
DD
100
AcDbEntity
  8
1
  6
Continuous
 62
    15
100
AcDbCircle
 10
11.99083510580936
 20
3.040975821951321
 30
0.0
 40
12.0
100
AcDbArc
 50
139.5408320000347
 51
158.1170510000027
  0
ARC
  5
110
330
DD
100
AcDbEntity
  8
1
  6
Continuous
 62
    15
100
AcDbCircle
 10
11.99083510580936
 20
3.040975821951321
 30
0.0
 40
12.0
100
AcDbArc
 50
160.5044179999866
 51
177.7124260000027
  0
ARC
  5
111
330
DD
100
AcDbEntity
  8
1
  6
Continuous
 62
    15
100
AcDbCircle
 10
0.4999991058085058
 20
3.499999821951093
 30
0.0
 40
0.5
100
AcDbArc
 50
270.0
 51
351.4670960000229
  0
ARC
  5
112
330
DD
100
AcDbEntity
  8
1
  6
Continuous
 62
    15
100
AcDbCircle
 10
0.4999991058085058
 20
3.499999821951093
 30
0.0
 40
0.5
100
AcDbArc
 50
177.7124259999999
 51
270.0
  0
ARC
  5
113
330
DD
100
AcDbEntity
  8
1
  6
Continuous
 62
    15
100
AcDbCircle
 10
0.4999991058085058
 20
3.499999821951093
 30
0.0
 40
0.5
100
AcDbArc
 50
177.7124259999999
 51
351.4670960000229
  0
ARC
  5
114
330
DD
100
AcDbEntity
  8
1
  6
Continuous
 62
    15
100
AcDbCircle
 10
12.86163510580996
 20
1.645282821950929
 30
0.0
 40
12.0
100
AcDbArc
 50
105.0788829999628
 51
171.4670960000185
  0
ARC
  5
115
330
DD
100
AcDbEntity
  8
1
  6
Continuous
 62
    15
100
AcDbCircle
 10
9.999999105808506
 20
12.2665368219506
 30
0.0
 40
1.0
100
AcDbArc
 50
0.0
 51
105.0788829999629
  0
LINE
  5
116
330
DD
100
AcDbEntity
  8
1
  6
Continuous
 62
    15
100
AcDbLine
 10
11.29999910580778
 20
14.99999982195108
 30
0.0
 11
11.24999910580851
 21
14.99999982195108
 31
0.0
  0
LINE
  5
117
330
DD
100
AcDbEntity
  8
1
  6
Continuous
 62
    15
100
AcDbLine
 10
11.24999910580851
 20
14.99999982195108
 30
0.0
 11
14.49999910580851
 21
14.99999982195108
 31
0.0
  0
ARC
  5
118
330
DD
100
AcDbEntity
  8
1
  6
Continuous
 62
    15
100
AcDbCircle
 10
14.19999910580923
 20
9.299999821950355
 30
0.0
 40
0.2
100
AcDbArc
 50
18.13549600020464
 51
180.0
  0
LINE
  5
119
330
DD
100
AcDbEntity
  8
1
  6
Continuous
 62
    15
100
AcDbLine
 10
13.99999910580851
 20
9.299999821950355
 30
0.0
 11
13.99999910580851
 21
7.999999821951082
 31
0.0
  0
LINE
  5
11A
330
DD
100
AcDbEntity
  8
1
  6
Continuous
 62
    15
100
AcDbLine
 10
13.99999910580851
 20
7.999999821951082
 30
0.0
 11
12.49999910580851
 21
7.999999821951082
 31
0.0
  0
LINE
  5
11B
330
DD
100
AcDbEntity
  8
1
  6
Continuous
 62
    15
100
AcDbLine
 10
12.49999910580851
 20
7.999999821951082
 30
0.0
 11
12.49999910580851
 21
13.99999982195108
 31
0.0
  0
LINE
  5
11C
330
DD
100
AcDbEntity
  8
1
  6
Continuous
 62
    15
100
AcDbLine
 10
12.49999910580851
 20
13.99999982195108
 30
0.0
 11
13.99999910580851
 21
13.99999982195108
 31
0.0
  0
LINE
  5
11D
330
DD
100
AcDbEntity
  8
1
  6
Continuous
 62
    15
100
AcDbLine
 10
13.99999910580851
 20
13.99999982195108
 30
0.0
 11
13.99999910580851
 21
12.69999982194999
 31
0.0
  0
ARC
  5
11E
330
DD
100
AcDbEntity
  8
1
  6
Continuous
 62
    15
100
AcDbCircle
 10
14.19999910580923
 20
12.69999982194999
 30
0.0
 40
0.2
100
AcDbArc
 50
180.0
 51
341.0753560000595
  0
LINE
  5
11F
330
DD
100
AcDbEntity
  8
1
  6
Continuous
 62
    15
100
AcDbLine
 10
14.3891891058102
 20
12.63513482194971
 30
0.0
 11
14.9999991058085
 21
14.41666582195025
 31
0.0
  0
ARC
  5
120
330
DD
100
AcDbEntity
  8
1
  6
Continuous
 62
    15
100
AcDbCircle
 10
14.49999910580851
 20
14.49999982195108
 30
0.0
 40
0.5
100
AcDbArc
 50
0.0
 51
90.0
  0
ARC
  5
121
330
DD
100
AcDbEntity
  8
1
  6
Continuous
 62
    15
100
AcDbCircle
 10
14.49999910580851
 20
14.49999982195108
 30
0.0
 40
0.5
100
AcDbArc
 50
341.075356000094
 51
0.0
  0
ARC
  5
122
330
DD
100
AcDbEntity
  8
1
  6
Continuous
 62
    15
100
AcDbCircle
 10
14.49999910580851
 20
14.49999982195108
 30
0.0
 40
0.5
100
AcDbArc
 50
0.0
 51
90.0
  0
ARC
  5
123
330
DD
100
AcDbEntity
  8
1
  6
Continuous
 62
    15
100
AcDbCircle
 10
0.7647121058089894
 20
7.280570821950416
 30
0.0
 40
0.25
100
AcDbArc
 50
68.71389300025757
 51
249.9075769998148
  0
ARC
  5
124
330
DD
100
AcDbEntity
  8
1
  6
Continuous
 62
    15
100
AcDbCircle
 10
3.024611105809576
 20
11.01636482195059
 30
0.0
 40
0.25
100
AcDbArc
 50
47.75030600002979
 51
228.9439900003264
  0
ARC
  5
125
330
DD
100
AcDbEntity
  8
1
  6
Continuous
 62
    15
100
AcDbCircle
 10
6.566284105809295
 20
13.7449118219512
 30
0.0
 40
0.25
100
AcDbArc
 50
26.2781810000104
 51
207.4718650001417
  0
ARC
  5
126
330
DD
100
AcDbEntity
  8
1
  6
Continuous
 62
    15
100
AcDbCircle
 10
10.99999910580851
 20
14.99999982195108
 30
0.0
 40
0.25
100
AcDbArc
 50
0.0
 51
185.3331240002742
  0
ARC
  5
127
330
DD
100
AcDbEntity
  8
1
  6
Continuous
 62
    15
100
AcDbCircle
 10
13.49999910580851
 20
4.499999821951093
 30
0.0
 40
0.5
100
AcDbArc
 50
90.0
 51
180.0
  0
LINE
  5
128
330
DD
100
AcDbEntity
  8
1
  6
Continuous
 62
    15
100
AcDbLine
 10
76.22570847572393
 20
1.681193529323664
 30
0.0
 11
45.65536630835884
 21
3.12710803500309
 31
0.0
  0
LINE
  5
129
330
DD
100
AcDbEntity
  8
1
  6
Continuous
 62
    15
100
AcDbLine
 10
44.65200376684
 20
3.174565026007464
 30
0.0
 11
43.40536630835884
 21
3.233528421793906
 31
0.0
  0
LINE
  5
12A
330
DD
100
AcDbEntity
  8
1
  6
Continuous
 62
    15
100
AcDbLine
 10
42.40200376684002
 20
3.280985412798287
 30
0.0
 11
41.15536630835884
 21
3.339948808584722
 31
0.0
  0
LINE
  5
12B
330
DD
100
AcDbEntity
  8
1
  6
Continuous
 62
    15
100
AcDbLine
 10
40.15200376684002
 20
3.387405799589104
 30
0.0
 11
32.62983869401619
 21
3.743188784724353
 31
0.0
  0
ARC
  5
12C
330
DD
100
AcDbEntity
  8
1
  6
Continuous
 62
    15
100
AcDbCircle
 10
22.52741692629046
 20
6.499999821951082
 30
0.0
 40
0.5
100
AcDbArc
 50
0.0
 51
90.0
  0
ENDBLK
  5
DF
330
DD
100
AcDbEntity
  8
0
100
AcDbBlockEnd
  0
ENDSEC
  0
SECTION
  2
ENTITIES
  0
INSERT
  5
47
330
1F
100
AcDbEntity
  8
1
100
AcDbBlockReference
  2
GEN_BLOCK
 10
-27.81512641906738
 20
7.185283660888672
 30
0.0
  0
INSERT
  5
57
330
1F
100
AcDbEntity
  8
1
100
AcDbBlockReference
  2
GEN_BLOCK00000
 10
-27.99146270751953
 20
-4.173226356506348
 30
0.0
  0
INSERT
  5
60
330
1F
100
AcDbEntity
  8
0
100
AcDbBlockReference
  2
GEN_BLOCK00001
 10
-34.18310546875
 20
7.934650421142578
 30
0.0
  0
INSERT
  5
6D
330
1F
100
AcDbEntity
  8
1
100
AcDbBlockReference
  2
GEN_BLOCK00002
 10
-30.87378692626953
 20
7.727486610412598
 30
0.0
  0
INSERT
  5
72
330
1F
100
AcDbEntity
  8
1
100
AcDbBlockReference
  2
GEN_BLOCK00003
 10
-34.41521453857422
 20
2.727486371994019
 30
0.0
  0
INSERT
  5
E0
330
1F
100
AcDbEntity
  8
1
100
AcDbBlockReference
  2
GEN_BLOCK00004
 10
-45.30073547363281
 20
-4.318929195404053
 30
0.0
  0
ENDSEC
  0
SECTION
  2
OBJECTS
  0
DICTIONARY
  5
C
330
0
100
AcDbDictionary
281
     1
  3
ACAD_GROUP
350
D
  3
ACAD_LAYOUT
350
1A
  3
ACAD_MLINESTYLE
350
17
  3
ACAD_PLOTSETTINGS
350
19
  3
ACAD_PLOTSTYLENAME
350
E
  3
ACAD_TABLESTYLE
350
12D
  3
ACAD_VISUALSTYLE
350
2A
  0
DICTIONARY
  5
D
102
{ACAD_REACTORS
330
C
102
}
330
C
100
AcDbDictionary
281
     1
  0
DICTIONARY
  5
1A
102
{ACAD_REACTORS
330
C
102
}
330
C
100
AcDbDictionary
281
     1
  3
Layout1
350
1E
  3
Layout2
350
26
  3
Model
350
22
  0
DICTIONARY
  5
17
102
{ACAD_REACTORS
330
C
102
}
330
C
100
AcDbDictionary
281
     1
  3
Standard
350
18
  0
DICTIONARY
  5
19
102
{ACAD_REACTORS
330
C
102
}
330
C
100
AcDbDictionary
281
     1
  0
ACDBDICTIONARYWDFLT
  5
E
102
{ACAD_REACTORS
330
C
102
}
330
C
100
AcDbDictionary
281
     1
  3
Normal
350
F
100
AcDbDictionaryWithDefault
340
F
  0
DICTIONARY
  5
12D
102
{ACAD_REACTORS
330
C
102
}
330
C
100
AcDbDictionary
281
     1
  0
DICTIONARY
  5
2A
102
{ACAD_REACTORS
330
C
102
}
330
C
100
AcDbDictionary
281
     1
  3
2dWireframe
350
2F
  3
3D Hidden
350
31
  3
3dWireframe
350
30
  3
Basic
350
32
  3
Brighten
350
36
  3
ColorChange
350
3A
  3
Conceptual
350
34
  3
Dim
350
35
  3
Facepattern
350
39
  3
Flat
350
2B
  3
FlatWithEdges
350
2C
  3
Gouraud
350
2D
  3
GouraudWithEdges
350
2E
  3
Linepattern
350
38
  3
Realistic
350
33
  3
Thicken
350
37
  0
LAYOUT
  5
1E
102
{ACAD_REACTORS
330
1A
102
}
330
1A
100
AcDbPlotSettings
  1

  2
none_device
  4

  6

 40
0.0
 41
0.0
 42
0.0
 43
0.0
 44
0.0
 45
0.0
 46
0.0
 47
0.0
 48
0.0
 49
0.0
140
0.0
141
0.0
142
1.0
143
1.0
 70
   688
 72
     0
 73
     0
 74
     5
  7

 75
    16
 76
     0
 77
     2
 78
   300
147
1.0
148
0.0
149
0.0
100
AcDbLayout
  1
Layout1
 70
     1
 71
     1
 10
0.0
 20
0.0
 11
420.0
 21
297.0
 12
0.0
 22
0.0
 32
0.0
 14
1.000000000000000E+20
 24
1.000000000000000E+20
 34
1.000000000000000E+20
 15
-1.000000000000000E+20
 25
-1.000000000000000E+20
 35
-1.000000000000000E+20
146
0.0
 13
0.0
 23
0.0
 33
0.0
 16
1.0
 26
0.0
 36
0.0
 17
0.0
 27
1.0
 37
0.0
 76
     0
330
1B
  0
LAYOUT
  5
26
102
{ACAD_REACTORS
330
1A
102
}
330
1A
100
AcDbPlotSettings
  1

  2
none_device
  4

  6

 40
0.0
 41
0.0
 42
0.0
 43
0.0
 44
0.0
 45
0.0
 46
0.0
 47
0.0
 48
0.0
 49
0.0
140
0.0
141
0.0
142
1.0
143
1.0
 70
   688
 72
     0
 73
     0
 74
     5
  7

 75
    16
 76
     0
 77
     2
 78
   300
147
1.0
148
0.0
149
0.0
100
AcDbLayout
  1
Layout2
 70
     1
 71
     2
 10
0.0
 20
0.0
 11
0.0
 21
0.0
 12
0.0
 22
0.0
 32
0.0
 14
0.0
 24
0.0
 34
0.0
 15
0.0
 25
0.0
 35
0.0
146
0.0
 13
0.0
 23
0.0
 33
0.0
 16
1.0
 26
0.0
 36
0.0
 17
0.0
 27
1.0
 37
0.0
 76
     0
330
23
  0
LAYOUT
  5
22
102
{ACAD_REACTORS
330
1A
102
}
330
1A
100
AcDbPlotSettings
  1

  2
none_device
  4

  6

 40
0.0
 41
0.0
 42
0.0
 43
0.0
 44
0.0
 45
0.0
 46
0.0
 47
0.0
 48
0.0
 49
0.0
140
0.0
141
0.0
142
1.0
143
1.0
 70
  1712
 72
     0
 73
     0
 74
     0
  7

 75
     0
 76
     0
 77
     2
 78
   300
147
1.0
148
0.0
149
0.0
100
AcDbLayout
  1
Model
 70
     1
 71
     0
 10
0.0
 20
0.0
 11
420.0
 21
297.0
 12
0.0
 22
0.0
 32
0.0
 14
-45.30073636782431
 24
-4.31892937345296
 34
0.0
 15
33.07356645467885
 25
71.31764412832807
 35
0.0
146
0.0
 13
0.0
 23
0.0
 33
0.0
 16
1.0
 26
0.0
 36
0.0
 17
0.0
 27
1.0
 37
0.0
 76
     0
330
1F
331
29
  0
MLINESTYLE
  5
18
102
{ACAD_REACTORS
330
17
102
}
330
17
100
AcDbMlineStyle
  2
Standard
 70
     0
  3

 62
   256
 51
90.0
 52
90.0
 71
     2
 49
0.5
 62
   256
  6
BYLAYER
 49
-0.5
 62
   256
  6
BYLAYER
  0
ACDBPLACEHOLDER
  5
F
102
{ACAD_REACTORS
330
E
102
}
330
E
  0
VISUALSTYLE
  5
2F
102
{ACAD_REACTORS
330
2A
102
}
330
2A
100
AcDbVisualStyle
  2
2dWireframe
 70
     4
 71
     0
 72
     2
 73
     0
 90
        0
 40
-0.6
 41
-30.0
 62
     5
 63
     7
421
 16777215
 74
     1
 91
        4
 64
     7
 65
   257
 75
     1
175
     1
 42
1.0
 92
        0
 66
   257
 43
1.0
 76
     1
 77
     6
 78
     2
 67
     7
 79
     5
170
     0
171
     0
290
     0
174
     0
 93
        1
 44
0.0
173
     0
291
     0
 45
0.0
  0
VISUALSTYLE
  5
31
102
{ACAD_REACTORS
330
2A
102
}
330
2A
100
AcDbVisualStyle
  2
3D Hidden
 70
     6
 71
     1
 72
     2
 73
     2
 90
        0
 40
-0.6
 41
-30.0
 62
     5
 63
     7
421
 16777215
 74
     2
 91
        2
 64
     7
 65
   257
 75
     2
175
     1
 42
40.0
 92
        0
 66
   257
 43
1.0
 76
     1
 77
     6
 78
     2
 67
     7
 79
     3
170
     0
171
     0
290
     0
174
     0
 93
        1
 44
0.0
173
     0
291
     0
 45
0.0
  0
VISUALSTYLE
  5
30
102
{ACAD_REACTORS
330
2A
102
}
330
2A
100
AcDbVisualStyle
  2
3dWireframe
 70
     5
 71
     0
 72
     2
 73
     0
 90
        0
 40
-0.6
 41
-30.0
 62
     5
 63
     7
421
 16777215
 74
     1
 91
        4
 64
     7
 65
   257
 75
     1
175
     1
 42
1.0
 92
        0
 66
   257
 43
1.0
 76
     1
 77
     6
 78
     2
 67
     7
 79
     5
170
     0
171
     0
290
     0
174
     0
 93
        1
 44
0.0
173
     0
291
     0
 45
0.0
  0
VISUALSTYLE
  5
32
102
{ACAD_REACTORS
330
2A
102
}
330
2A
100
AcDbVisualStyle
  2
Basic
 70
     7
 71
     1
 72
     0
 73
     1
 90
        0
 40
-0.6
 41
-30.0
 62
     5
 63
     7
421
 16777215
 74
     0
 91
        4
 64
     7
 65
   257
 75
     1
175
     1
 42
1.0
 92
        8
 66
     7
 43
1.0
 76
     1
 77
     6
 78
     2
 67
     7
 79
     5
170
     0
171
     0
290
     0
174
     0
 93
        1
 44
0.0
173
     0
291
     1
 45
0.0
  0
VISUALSTYLE
  5
36
102
{ACAD_REACTORS
330
2A
102
}
330
2A
100
AcDbVisualStyle
  2
Brighten
 70
    12
 71
     2
 72
     2
 73
     0
 90
        0
 40
-0.6
 41
-30.0
 62
     5
 63
     7
421
 16777215
 74
     1
 91
        4
 64
     7
 65
   257
 75
     1
175
     1
 42
1.0
 92
        8
 66
     7
 43
1.0
 76
     1
 77
     6
 78
     2
 67
     7
 79
     5
170
     0
171
     0
290
     0
174
     0
 93
        1
 44
50.0
173
     0
291
     1
 45
0.0
  0
VISUALSTYLE
  5
3A
102
{ACAD_REACTORS
330
2A
102
}
330
2A
100
AcDbVisualStyle
  2
ColorChange
 70
    16
 71
     2
 72
     2
 73
     3
 90
        0
 40
-0.6
 41
-30.0
 62
     5
 63
     8
421
  8421504
 74
     1
 91
        4
 64
     7
 65
   257
 75
     1
175
     1
 42
1.0
 92
        8
 66
     8
424
  8421504
 43
1.0
 76
     1
 77
     6
 78
     2
 67
     7
 79
     5
170
     0
171
     0
290
     0
174
     0
 93
        1
 44
0.0
173
     0
291
     1
 45
0.0
  0
VISUALSTYLE
  5
34
102
{ACAD_REACTORS
330
2A
102
}
330
2A
100
AcDbVisualStyle
  2
Conceptual
 70
     9
 71
     3
 72
     2
 73
     0
 90
        0
 40
-0.6
 41
-30.0
 62
     5
 63
     7
421
 16777215
 74
     2
 91
        2
 64
     7
 65
   257
 75
     1
175
     1
 42
40.0
 92
        8
 66
     7
 43
1.0
 76
     1
 77
     6
 78
     2
 67
     7
 79
     3
170
     0
171
     0
290
     0
174
     0
 93
        1
 44
0.0
173
     0
291
     0
 45
0.0
  0
VISUALSTYLE
  5
35
102
{ACAD_REACTORS
330
2A
102
}
330
2A
100
AcDbVisualStyle
  2
Dim
 70
    11
 71
     2
 72
     2
 73
     0
 90
        0
 40
-0.6
 41
-30.0
 62
     5
 63
     7
421
 16777215
 74
     1
 91
        4
 64
     7
 65
   257
 75
     1
175
     1
 42
1.0
 92
        8
 66
     7
 43
1.0
 76
     1
 77
     6
 78
     2
 67
     7
 79
     5
170
     0
171
     0
290
     0
174
     0
 93
        1
 44
-50.0
173
     0
291
     1
 45
0.0
  0
VISUALSTYLE
  5
39
102
{ACAD_REACTORS
330
2A
102
}
330
2A
100
AcDbVisualStyle
  2
Facepattern
 70
    15
 71
     2
 72
     2
 73
     0
 90
        0
 40
-0.6
 41
-30.0
 62
     5
 63
     7
421
 16777215
 74
     1
 91
        4
 64
     7
 65
   257
 75
     1
175
     1
 42
1.0
 92
        8
 66
     7
 43
1.0
 76
     1
 77
     6
 78
     2
 67
     7
 79
     5
170
     0
171
     0
290
     0
174
     0
 93
        1
 44
0.0
173
     0
291
     1
 45
0.0
  0
VISUALSTYLE
  5
2B
102
{ACAD_REACTORS
330
2A
102
}
330
2A
100
AcDbVisualStyle
  2
Flat
 70
     0
 71
     2
 72
     1
 73
     1
 90
        2
 40
-0.6
 41
30.0
 62
     5
 63
     7
421
 16777215
 74
     0
 91
        4
 64
     7
 65
   257
 75
     1
175
     1
 42
1.0
 92
        8
 66
     7
 43
1.0
 76
     1
 77
     6
 78
     2
 67
     7
 79
     5
170
     0
171
     0
290
     0
174
     0
 93
       13
 44
0.0
173
     0
291
     1
 45
0.0
  0
VISUALSTYLE
  5
2C
102
{ACAD_REACTORS
330
2A
102
}
330
2A
100
AcDbVisualStyle
  2
FlatWithEdges
 70
     1
 71
     2
 72
     1
 73
     1
 90
        2
 40
-0.6
 41
30.0
 62
     5
 63
     7
421
 16777215
 74
     1
 91
        4
 64
     7
 65
   257
 75
     1
175
     1
 42
1.0
 92
        0
 66
   257
 43
1.0
 76
     1
 77
     6
 78
     2
 67
     7
 79
     5
170
     0
171
     0
290
     0
174
     0
 93
       13
 44
0.0
173
     0
291
     1
 45
0.0
  0
VISUALSTYLE
  5
2D
102
{ACAD_REACTORS
330
2A
102
}
330
2A
100
AcDbVisualStyle
  2
Gouraud
 70
     2
 71
     2
 72
     2
 73
     1
 90
        2
 40
-0.6
 41
30.0
 62
     5
 63
     7
421
 16777215
 74
     0
 91
        4
 64
     7
 65
   257
 75
     1
175
     1
 42
1.0
 92
        0
 66
     7
 43
1.0
 76
     1
 77
     6
 78
     2
 67
     7
 79
     5
170
     0
171
     0
290
     0
174
     0
 93
       13
 44
0.0
173
     0
291
     1
 45
0.0
  0
VISUALSTYLE
  5
2E
102
{ACAD_REACTORS
330
2A
102
}
330
2A
100
AcDbVisualStyle
  2
GouraudWithEdges
 70
     3
 71
     2
 72
     2
 73
     1
 90
        2
 40
-0.6
 41
30.0
 62
     5
 63
     7
421
 16777215
 74
     1
 91
        4
 64
     7
 65
   257
 75
     1
175
     1
 42
1.0
 92
        0
 66
   257
 43
1.0
 76
     1
 77
     6
 78
     2
 67
     7
 79
     5
170
     0
171
     0
290
     0
174
     0
 93
       13
 44
0.0
173
     0
291
     1
 45
0.0
  0
VISUALSTYLE
  5
38
102
{ACAD_REACTORS
330
2A
102
}
330
2A
100
AcDbVisualStyle
  2
Linepattern
 70
    14
 71
     2
 72
     2
 73
     0
 90
        0
 40
-0.6
 41
-30.0
 62
     5
 63
     7
421
 16777215
 74
     1
 91
        4
 64
     7
 65
   257
 75
     7
175
     7
 42
1.0
 92
        8
 66
     7
 43
1.0
 76
     1
 77
     6
 78
     2
 67
     7
 79
     5
170
     0
171
     0
290
     0
174
     0
 93
        1
 44
0.0
173
     0
291
     1
 45
0.0
  0
VISUALSTYLE
  5
33
102
{ACAD_REACTORS
330
2A
102
}
330
2A
100
AcDbVisualStyle
  2
Realistic
 70
     8
 71
     2
 72
     2
 73
     0
 90
        0
 40
-0.6
 41
-30.0
 62
     5
 63
     7
421
 16777215
 74
     1
 91
        0
 64
     7
 65
   257
 75
     1
175
     1
 42
1.0
 92
        8
 66
     8
424
  7895160
 43
1.0
 76
     1
 77
     6
 78
     2
 67
     7
 79
     5
170
     0
171
     0
290
     0
174
     0
 93
       13
 44
0.0
173
     0
291
     0
 45
0.0
  0
VISUALSTYLE
  5
37
102
{ACAD_REACTORS
330
2A
102
}
330
2A
100
AcDbVisualStyle
  2
Thicken
 70
    13
 71
     2
 72
     2
 73
     0
 90
        0
 40
-0.6
 41
-30.0
 62
     5
 63
     7
421
 16777215
 74
     1
 91
        4
 64
     7
 65
   257
 75
     1
175
     1
 42
1.0
 92
       12
 66
     7
 43
1.0
 76
     1
 77
     6
 78
     2
 67
     7
 79
     5
170
     0
171
     0
290
     0
174
     0
 93
        1
 44
0.0
173
     0
291
     1
 45
0.0
  0
ENDSEC
  0
EOF
