  0
SECTION
  2
HEADER
  9
$ACADVER
  1
AC1024
  9
$ACADMAINTVER
 70
     6
  9
$DWGCODEPAGE
  3
ANSI_1252
  9
$INSBASE
 10
0.0
 20
0.0
 30
0.0
  9
$EXTMIN
 10
-98.93606297498508
 20
-133.7571033549152
 30
0.0
  9
$EXTMAX
 10
100.0839462901311
 20
144.302347929844
 30
0.0
  9
$LIMMIN
 10
0.0
 20
0.0
  9
$LIMMAX
 10
420.0
 20
297.0
  9
$ORTHOMODE
 70
     0
  9
$REGENMODE
 70
     1
  9
$FILLMODE
 70
     1
  9
$QTEXTMODE
 70
     0
  9
$MIRRTEXT
 70
     1
  9
$LTSCALE
 40
1.0
  9
$ATTMODE
 70
     1
  9
$TEXTSIZE
 40
1.0
  9
$TRACEWID
 40
1.0
  9
$TEXTSTYLE
  7
Standard
  9
$CLAYER
  8
0
  9
$CELTYPE
  6
ByLayer
  9
$CECOLOR
 62
   256
  9
$CELTSCALE
 40
1.0
  9
$DISPSILH
 70
     0
  9
$DIMSCALE
 40
1.0
  9
$DIMASZ
 40
2.5
  9
$DIMEXO
 40
0.625
  9
$DIMDLI
 40
3.75
  9
$DIMRND
 40
0.0
  9
$DIMDLE
 40
0.0
  9
$DIMEXE
 40
1.25
  9
$DIMTP
 40
0.0
  9
$DIMTM
 40
0.0
  9
$DIMTXT
 40
2.5
  9
$DIMCEN
 40
2.5
  9
$DIMTSZ
 40
0.0
  9
$DIMTOL
 70
     0
  9
$DIMLIM
 70
     0
  9
$DIMTIH
 70
     0
  9
$DIMTOH
 70
     0
  9
$DIMSE1
 70
     0
  9
$DIMSE2
 70
     0
  9
$DIMTAD
 70
     1
  9
$DIMZIN
 70
     8
  9
$DIMBLK
  1

  9
$DIMASO
 70
     1
  9
$DIMSHO
 70
     1
  9
$DIMPOST
  1

  9
$DIMAPOST
  1

  9
$DIMALT
 70
     0
  9
$DIMALTD
 70
     3
  9
$DIMALTF
 40
0.03937007874016
  9
$DIMLFAC
 40
1.0
  9
$DIMTOFL
 70
     1
  9
$DIMTVP
 40
0.0
  9
$DIMTIX
 70
     0
  9
$DIMSOXD
 70
     0
  9
$DIMSAH
 70
     0
  9
$DIMBLK1
  1

  9
$DIMBLK2
  1

  9
$DIMSTYLE
  2
ISO-25
  9
$DIMCLRD
 70
     0
  9
$DIMCLRE
 70
     0
  9
$DIMCLRT
 70
     0
  9
$DIMTFAC
 40
1.0
  9
$DIMGAP
 40
0.625
  9
$DIMJUST
 70
     0
  9
$DIMSD1
 70
     0
  9
$DIMSD2
 70
     0
  9
$DIMTOLJ
 70
     0
  9
$DIMTZIN
 70
     8
  9
$DIMALTZ
 70
     0
  9
$DIMALTTZ
 70
     0
  9
$DIMUPT
 70
     0
  9
$DIMDEC
 70
     2
  9
$DIMTDEC
 70
     2
  9
$DIMALTU
 70
     2
  9
$DIMALTTD
 70
     3
  9
$DIMTXSTY
  7
Standard
  9
$DIMAUNIT
 70
     0
  9
$DIMADEC
 70
     0
  9
$DIMALTRND
 40
0.0
  9
$DIMAZIN
 70
     0
  9
$DIMDSEP
 70
    44
  9
$DIMATFIT
 70
     3
  9
$DIMFRAC
 70
     0
  9
$DIMLDRBLK
  1

  9
$DIMLUNIT
 70
     2
  9
$DIMLWD
 70
    -2
  9
$DIMLWE
 70
    -2
  9
$DIMTMOVE
 70
     0
  9
$DIMFXL
 40
1.0
  9
$DIMFXLON
 70
     0
  9
$DIMJOGANG
 40
0.7853981633974483
  9
$DIMTFILL
 70
     0
  9
$DIMTFILLCLR
 70
     0
  9
$DIMARCSYM
 70
     0
  9
$DIMLTYPE
  6

  9
$DIMLTEX1
  6

  9
$DIMLTEX2
  6

  9
$DIMTXTDIRECTION
 70
     0
  9
$LUNITS
 70
     2
  9
$LUPREC
 70
     4
  9
$SKETCHINC
 40
1.0
  9
$FILLETRAD
 40
10.0
  9
$AUNITS
 70
     0
  9
$AUPREC
 70
     0
  9
$MENU
  1
.
  9
$ELEVATION
 40
0.0
  9
$PELEVATION
 40
0.0
  9
$THICKNESS
 40
0.0
  9
$LIMCHECK
 70
     0
  9
$CHAMFERA
 40
0.0
  9
$CHAMFERB
 40
0.0
  9
$CHAMFERC
 40
0.0
  9
$CHAMFERD
 40
0.0
  9
$SKPOLY
 70
     0
  9
$TDCREATE
 40
2458463.620437546
  9
$TDUCREATE
 40
2458463.620437546
  9
$TDUPDATE
 40
2458463.62043809
  9
$TDUUPDATE
 40
2458463.62043809
  9
$TDINDWG
 40
0.0000000116
  9
$TDUSRTIMER
 40
0.0000000116
  9
$USRTIMER
 70
     1
  9
$ANGBASE
 50
0.0
  9
$ANGDIR
 70
     0
  9
$PDMODE
 70
     0
  9
$PDSIZE
 40
0.0
  9
$PLINEWID
 40
0.0
  9
$SPLFRAME
 70
     0
  9
$SPLINETYPE
 70
     6
  9
$SPLINESEGS
 70
     8
  9
$HANDSEED
  5
52B
  9
$SURFTAB1
 70
     6
  9
$SURFTAB2
 70
     6
  9
$SURFTYPE
 70
     6
  9
$SURFU
 70
     6
  9
$SURFV
 70
     6
  9
$UCSBASE
  2

  9
$UCSNAME
  2

  9
$UCSORG
 10
0.0
 20
0.0
 30
0.0
  9
$UCSXDIR
 10
1.0
 20
0.0
 30
0.0
  9
$UCSYDIR
 10
0.0
 20
1.0
 30
0.0
  9
$UCSORTHOREF
  2

  9
$UCSORTHOVIEW
 70
     0
  9
$UCSORGTOP
 10
0.0
 20
0.0
 30
0.0
  9
$UCSORGBOTTOM
 10
0.0
 20
0.0
 30
0.0
  9
$UCSORGLEFT
 10
0.0
 20
0.0
 30
0.0
  9
$UCSORGRIGHT
 10
0.0
 20
0.0
 30
0.0
  9
$UCSORGFRONT
 10
0.0
 20
0.0
 30
0.0
  9
$UCSORGBACK
 10
0.0
 20
0.0
 30
0.0
  9
$PUCSBASE
  2

  9
$PUCSNAME
  2

  9
$PUCSORG
 10
0.0
 20
0.0
 30
0.0
  9
$PUCSXDIR
 10
1.0
 20
0.0
 30
0.0
  9
$PUCSYDIR
 10
0.0
 20
1.0
 30
0.0
  9
$PUCSORTHOREF
  2

  9
$PUCSORTHOVIEW
 70
     0
  9
$PUCSORGTOP
 10
0.0
 20
0.0
 30
0.0
  9
$PUCSORGBOTTOM
 10
0.0
 20
0.0
 30
0.0
  9
$PUCSORGLEFT
 10
0.0
 20
0.0
 30
0.0
  9
$PUCSORGRIGHT
 10
0.0
 20
0.0
 30
0.0
  9
$PUCSORGFRONT
 10
0.0
 20
0.0
 30
0.0
  9
$PUCSORGBACK
 10
0.0
 20
0.0
 30
0.0
  9
$USERI1
 70
     0
  9
$USERI2
 70
     0
  9
$USERI3
 70
     0
  9
$USERI4
 70
     0
  9
$USERI5
 70
     0
  9
$USERR1
 40
0.0
  9
$USERR2
 40
0.0
  9
$USERR3
 40
0.0
  9
$USERR4
 40
0.0
  9
$USERR5
 40
0.0
  9
$WORLDVIEW
 70
     1
  9
$SHADEDGE
 70
     3
  9
$SHADEDIF
 70
    70
  9
$TILEMODE
 70
     1
  9
$MAXACTVP
 70
    64
  9
$PINSBASE
 10
0.0
 20
0.0
 30
0.0
  9
$PLIMCHECK
 70
     0
  9
$PEXTMIN
 10
1.000000000000000E+20
 20
1.000000000000000E+20
 30
1.000000000000000E+20
  9
$PEXTMAX
 10
-1.000000000000000E+20
 20
-1.000000000000000E+20
 30
-1.000000000000000E+20
  9
$PLIMMIN
 10
0.0
 20
0.0
  9
$PLIMMAX
 10
420.0
 20
297.0
  9
$UNITMODE
 70
     0
  9
$VISRETAIN
 70
     1
  9
$PLINEGEN
 70
     0
  9
$PSLTSCALE
 70
     1
  9
$TREEDEPTH
 70
  3020
  9
$CMLSTYLE
  2
Standard
  9
$CMLJUST
 70
     0
  9
$CMLSCALE
 40
20.0
  9
$PROXYGRAPHICS
 70
     1
  9
$MEASUREMENT
 70
     1
  9
$CELWEIGHT
370
    -1
  9
$ENDCAPS
280
     0
  9
$JOINSTYLE
280
     0
  9
$LWDISPLAY
290
     0
  9
$INSUNITS
 70
     4
  9
$HYPERLINKBASE
  1

  9
$STYLESHEET
  1

  9
$XEDIT
290
     1
  9
$CEPSNTYPE
380
     0
  9
$PSTYLEMODE
290
     1
  9
$FINGERPRINTGUID
  2
{3BDF5D36-D269-4DCE-B4F2-FD1A7D2EA8C3}
  9
$VERSIONGUID
  2
{FAEB1C32-E019-11D5-929B-00C0DF256EC4}
  9
$EXTNAMES
290
     1
  9
$PSVPSCALE
 40
0.0
  9
$OLESTARTUP
290
     0
  9
$SORTENTS
280
   127
  9
$INDEXCTL
280
     0
  9
$HIDETEXT
280
     1
  9
$XCLIPFRAME
280
     2
  9
$HALOGAP
280
     0
  9
$OBSCOLOR
 70
   257
  9
$OBSLTYPE
280
     0
  9
$INTERSECTIONDISPLAY
280
     0
  9
$INTERSECTIONCOLOR
 70
   257
  9
$DIMASSOC
280
     2
  9
$PROJECTNAME
  1

  9
$CAMERADISPLAY
290
     0
  9
$LENSLENGTH
 40
50.0
  9
$CAMERAHEIGHT
 40
0.0
  9
$STEPSPERSEC
 40
2.0
  9
$STEPSIZE
 40
6.0
  9
$3DDWFPREC
 40
2.0
  9
$PSOLWIDTH
 40
5.0
  9
$PSOLHEIGHT
 40
80.0
  9
$LOFTANG1
 40
1.570796326794897
  9
$LOFTANG2
 40
1.570796326794897
  9
$LOFTMAG1
 40
0.0
  9
$LOFTMAG2
 40
0.0
  9
$LOFTPARAM
 70
     7
  9
$LOFTNORMALS
280
     1
  9
$LATITUDE
 40
37.795
  9
$LONGITUDE
 40
-122.394
  9
$NORTHDIRECTION
 40
0.0
  9
$TIMEZONE
 70
 -8000
  9
$LIGHTGLYPHDISPLAY
280
     1
  9
$TILEMODELIGHTSYNCH
280
     1
  9
$CMATERIAL
347
44
  9
$SOLIDHIST
280
     1
  9
$SHOWHIST
280
     1
  9
$DWFFRAME
280
     2
  9
$DGNFRAME
280
     2
  9
$REALWORLDSCALE
290
     1
  9
$INTERFERECOLOR
 62
   256
  9
$CSHADOW
280
     0
  9
$SHADOWPLANELOCATION
 40
0.0
  0
ENDSEC
  0
SECTION
  2
CLASSES
  0
CLASS
  1
ACDBDICTIONARYWDFLT
  2
AcDbDictionaryWithDefault
  3
ObjectDBX Classes
 90
        0
 91
        4
280
     0
281
     0
  0
CLASS
  1
VISUALSTYLE
  2
AcDbVisualStyle
  3
ObjectDBX Classes
 90
     4095
 91
        4
280
     0
281
     0
  0
CLASS
  1
MATERIAL
  2
AcDbMaterial
  3
ObjectDBX Classes
 90
     1153
 91
        4
280
     0
281
     0
  0
CLASS
  1
SCALE
  2
AcDbScale
  3
ObjectDBX Classes
 90
     1153
 91
        4
280
     0
281
     0
  0
CLASS
  1
SUN
  2
AcDbSun
  3
SCENEOE
 90
     1153
 91
        4
280
     0
281
     0
  0
CLASS
  1
DICTIONARYVAR
  2
AcDbDictionaryVar
  3
ObjectDBX Classes
 90
        0
 91
        4
280
     0
281
     0
  0
ENDSEC
  0
SECTION
  2
TABLES
  0
TABLE
  2
VPORT
  5
8
330
0
100
AcDbSymbolTable
 70
     1
  0
VPORT
  5
29
330
8
100
AcDbSymbolTableRecord
100
AcDbViewportTableRecord
  2
*Active
 70
     0
 10
0.0
 20
0.0
 11
1.0
 21
1.0
 12
344.1869158878504
 22
148.5
 13
0.0
 23
0.0
 14
10.0
 24
10.0
 15
10.0
 25
10.0
 16
0.0
 26
0.0
 36
1.0
 17
0.0
 27
0.0
 37
0.0
 40
297.0
 41
1.972972972850329
 42
50.0
 43
0.0
 44
0.0
 50
0.0
 51
0.0
 71
     0
 72
   100
 73
     1
 74
     3
 75
     0
 76
     0
 77
     0
 78
     0
281
     0
 65
     1
110
0.0
120
0.0
130
0.0
111
1.0
121
0.0
131
0.0
112
0.0
122
1.0
132
0.0
 79
     0
146
0.0
 60
     3
 61
     5
292
     1
282
     1
141
0.0
142
0.0
 63
   250
361
69
  0
ENDTAB
  0
TABLE
  2
LTYPE
  5
5
330
0
100
AcDbSymbolTable
 70
     9
  0
LTYPE
  5
14
330
5
100
AcDbSymbolTableRecord
100
AcDbLinetypeTableRecord
  2
ByBlock
 70
     0
  3

 72
    65
 73
     0
 40
0.0
  0
LTYPE
  5
15
330
5
100
AcDbSymbolTableRecord
100
AcDbLinetypeTableRecord
  2
ByLayer
 70
     0
  3

 72
    65
 73
     0
 40
0.0
  0
LTYPE
  5
16
330
5
100
AcDbSymbolTableRecord
100
AcDbLinetypeTableRecord
  2
Continuous
 70
     0
  3
Solid line
 72
    65
 73
     0
 40
0.0
  0
LTYPE
  5
6A
330
5
100
AcDbSymbolTableRecord
100
AcDbLinetypeTableRecord
  2
DOT
 70
     0
  3
____    ____    
 72
    65
 73
     4
 40
16.0
 49
4.0
 74
     0
 49
-4.0
 74
     0
 49
4.0
 74
     0
 49
-4.0
 74
     0
  0
LTYPE
  5
6B
330
5
100
AcDbSymbolTableRecord
100
AcDbLinetypeTableRecord
  2
HIDDEN
 70
     0
  3
__  __  __  __  
 72
    65
 73
     8
 40
16.0
 49
2.0
 74
     0
 49
-2.0
 74
     0
 49
2.0
 74
     0
 49
-2.0
 74
     0
 49
2.0
 74
     0
 49
-2.0
 74
     0
 49
2.0
 74
     0
 49
-2.0
 74
     0
  0
LTYPE
  5
6C
330
5
100
AcDbSymbolTableRecord
100
AcDbLinetypeTableRecord
  2
DASHED
 70
     0
  3
________        
 72
    65
 73
     2
 40
16.0
 49
8.0
 74
     0
 49
-8.0
 74
     0
  0
LTYPE
  5
6D
330
5
100
AcDbSymbolTableRecord
100
AcDbLinetypeTableRecord
  2
DASHDOT
 70
     0
  3
____________    
 72
    65
 73
     2
 40
16.0
 49
12.0
 74
     0
 49
-4.0
 74
     0
  0
LTYPE
  5
6E
330
5
100
AcDbSymbolTableRecord
100
AcDbLinetypeTableRecord
  2
BORDER
 70
     0
  3
_____________ _ 
 72
    65
 73
     4
 40
16.0
 49
13.0
 74
     0
 49
-1.0
 74
     0
 49
1.0
 74
     0
 49
-1.0
 74
     0
  0
LTYPE
  5
6F
330
5
100
AcDbSymbolTableRecord
100
AcDbLinetypeTableRecord
  2
CENTER
 70
     0
  3
_________  ___  
 72
    65
 73
     4
 40
16.0
 49
9.0
 74
     0
 49
-2.0
 74
     0
 49
3.0
 74
     0
 49
-2.0
 74
     0
  0
LTYPE
  5
70
330
5
100
AcDbSymbolTableRecord
100
AcDbLinetypeTableRecord
  2
PHANTOM
 70
     0
  3
_______   ___   
 72
    65
 73
     4
 40
16.0
 49
7.0
 74
     0
 49
-3.0
 74
     0
 49
3.0
 74
     0
 49
-3.0
 74
     0
  0
LTYPE
  5
71
330
5
100
AcDbSymbolTableRecord
100
AcDbLinetypeTableRecord
  2
DIVIDE
 70
     0
  3
_______  __ __  
 72
    65
 73
     6
 40
16.0
 49
7.0
 74
     0
 49
-2.0
 74
     0
 49
2.0
 74
     0
 49
-1.0
 74
     0
 49
2.0
 74
     0
 49
-2.0
 74
     0
  0
ENDTAB
  0
TABLE
  2
LAYER
  5
2
330
0
100
AcDbSymbolTable
 70
     4
  0
LAYER
  5
10
330
2
100
AcDbSymbolTableRecord
100
AcDbLayerTableRecord
  2
0
 70
     0
 62
     7
  6
Continuous
370
    -3
390
F
347
46
  0
LAYER
  5
84
330
2
100
AcDbSymbolTableRecord
100
AcDbLayerTableRecord
  2
1
 70
     0
 62
     7
420
 16777215
  6
Continuous
370
    -3
390
F
347
46
  0
LAYER
  5
94
330
2
100
AcDbSymbolTableRecord
100
AcDbLayerTableRecord
  2
FIXING
 70
     0
 62
     7
420
 16777215
  6
Continuous
370
    -3
390
F
347
46
  0
LAYER
  5
B9
330
2
100
AcDbSymbolTableRecord
100
AcDbLayerTableRecord
  2
GEN_LAYER
 70
     0
 62
     7
420
 16777215
  6
Continuous
370
    -3
390
F
347
46
  0
ENDTAB
  0
TABLE
  2
STYLE
  5
3
330
0
100
AcDbSymbolTable
 70
     4
  0
STYLE
  5
11
330
3
100
AcDbSymbolTableRecord
100
AcDbTextStyleTableRecord
  2
Standard
 70
     0
 40
0.0
 41
1.0
 50
0.0
 71
     0
 42
1.0
  3
txt
  4

  0
STYLE
  5
72
330
3
100
AcDbSymbolTableRecord
100
AcDbTextStyleTableRecord
  2
VERDANA
 70
     0
 40
0.2
 41
1.0
 50
0.0
 71
     0
 42
1.0
  3
VERDANA.TTF
  4

  0
STYLE
  5
73
330
3
100
AcDbSymbolTableRecord
100
AcDbTextStyleTableRecord
  2
ARIAL
 70
     0
 40
0.2
 41
1.0
 50
0.0
 71
     0
 42
1.0
  3
ARIAL.TTF
  4

  0
STYLE
  5
74
330
3
100
AcDbSymbolTableRecord
100
AcDbTextStyleTableRecord
  2
CALISTB
 70
     0
 40
0.2
 41
1.0
 50
0.0
 71
     0
 42
1.0
  3
CALISTB.TTF
  4

  0
ENDTAB
  0
TABLE
  2
VIEW
  5
6
330
0
100
AcDbSymbolTable
 70
     0
  0
ENDTAB
  0
TABLE
  2
UCS
  5
7
330
0
100
AcDbSymbolTable
 70
     0
  0
ENDTAB
  0
TABLE
  2
APPID
  5
9
330
0
100
AcDbSymbolTable
 70
     1
  0
APPID
  5
12
330
9
100
AcDbSymbolTableRecord
100
AcDbRegAppTableRecord
  2
ACAD
 70
     0
  0
ENDTAB
  0
TABLE
  2
DIMSTYLE
  5
A
330
0
100
AcDbSymbolTable
 70
     1
100
AcDbDimStyleTable
  0
DIMSTYLE
105
27
330
A
100
AcDbSymbolTableRecord
100
AcDbDimStyleTableRecord
  2
ISO-25
 70
     0
 41
2.5
 42
0.625
 43
3.75
 44
1.25
 73
     0
 74
     0
 77
     1
 78
     8
140
2.5
141
2.5
143
0.03937007874016
147
0.625
171
     3
172
     1
178
     0
271
     2
272
     2
274
     3
278
    44
283
     0
284
     8
340
11
  0
ENDTAB
  0
TABLE
  2
BLOCK_RECORD
  5
1
330
0
100
AcDbSymbolTable
 70
    23
  0
BLOCK_RECORD
  5
1F
330
1
100
AcDbSymbolTableRecord
100
AcDbBlockTableRecord
  2
*Model_Space
340
22
 70
     0
280
     1
281
     0
  0
BLOCK_RECORD
  5
1B
330
1
100
AcDbSymbolTableRecord
100
AcDbBlockTableRecord
  2
*Paper_Space
340
1E
 70
     0
280
     1
281
     0
  0
BLOCK_RECORD
  5
23
330
1
100
AcDbSymbolTableRecord
100
AcDbBlockTableRecord
  2
*Paper_Space0
340
26
 70
     0
280
     1
281
     0
  0
BLOCK_RECORD
  5
75
330
1
100
AcDbSymbolTableRecord
100
AcDbBlockTableRecord
  2
GEN_BLOCK
340
0
102
{BLKREFS
331
78
102
}
 70
     0
280
     1
281
     0
  0
BLOCK_RECORD
  5
85
330
1
100
AcDbSymbolTableRecord
100
AcDbBlockTableRecord
  2
GEN_BLOCK00000
340
0
102
{BLKREFS
331
88
102
}
 70
     0
280
     1
281
     0
  0
BLOCK_RECORD
  5
8A
330
1
100
AcDbSymbolTableRecord
100
AcDbBlockTableRecord
  2
GEN_BLOCK00001
340
0
102
{BLKREFS
331
8D
102
}
 70
     0
280
     1
281
     0
  0
BLOCK_RECORD
  5
8F
330
1
100
AcDbSymbolTableRecord
100
AcDbBlockTableRecord
  2
GEN_BLOCK00002
340
0
102
{BLKREFS
331
92
102
}
 70
     0
280
     1
281
     0
  0
BLOCK_RECORD
  5
95
330
1
100
AcDbSymbolTableRecord
100
AcDbBlockTableRecord
  2
8569S
340
0
102
{BLKREFS
331
99
102
}
 70
     0
280
     1
281
     0
  0
BLOCK_RECORD
  5
BA
330
1
100
AcDbSymbolTableRecord
100
AcDbBlockTableRecord
  2
GEN_BLOCK00003
340
0
102
{BLKREFS
331
BD
102
}
 70
     0
280
     1
281
     0
  0
BLOCK_RECORD
  5
E3
330
1
100
AcDbSymbolTableRecord
100
AcDbBlockTableRecord
  2
GEN_BLOCK00004
340
0
102
{BLKREFS
331
E6
102
}
 70
     0
280
     1
281
     0
  0
BLOCK_RECORD
  5
E8
330
1
100
AcDbSymbolTableRecord
100
AcDbBlockTableRecord
  2
GEN_BLOCK00005
340
0
102
{BLKREFS
331
EB
102
}
 70
     0
280
     1
281
     0
  0
BLOCK_RECORD
  5
331
330
1
100
AcDbSymbolTableRecord
100
AcDbBlockTableRecord
  2
GEN_BLOCK00006
340
0
102
{BLKREFS
331
334
102
}
 70
     0
280
     1
281
     0
  0
BLOCK_RECORD
  5
3E0
330
1
100
AcDbSymbolTableRecord
100
AcDbBlockTableRecord
  2
GEN_BLOCK00007
340
0
102
{BLKREFS
331
3E3
102
}
 70
     0
280
     1
281
     0
  0
BLOCK_RECORD
  5
40B
330
1
100
AcDbSymbolTableRecord
100
AcDbBlockTableRecord
  2
GEN_BLOCK00008
340
0
102
{BLKREFS
331
40E
102
}
 70
     0
280
     1
281
     0
  0
BLOCK_RECORD
  5
410
330
1
100
AcDbSymbolTableRecord
100
AcDbBlockTableRecord
  2
GEN_BLOCK00009
340
0
102
{BLKREFS
331
413
102
}
 70
     0
280
     1
281
     0
  0
BLOCK_RECORD
  5
438
330
1
100
AcDbSymbolTableRecord
100
AcDbBlockTableRecord
  2
GEN_BLOCK00010
340
0
102
{BLKREFS
331
43B
102
}
 70
     0
280
     1
281
     0
  0
BLOCK_RECORD
  5
448
330
1
100
AcDbSymbolTableRecord
100
AcDbBlockTableRecord
  2
GEN_BLOCK00011
340
0
102
{BLKREFS
331
44B
102
}
 70
     0
280
     1
281
     0
  0
BLOCK_RECORD
  5
44D
330
1
100
AcDbSymbolTableRecord
100
AcDbBlockTableRecord
  2
GEN_BLOCK00012
340
0
102
{BLKREFS
331
450
102
}
 70
     0
280
     1
281
     0
  0
BLOCK_RECORD
  5
452
330
1
100
AcDbSymbolTableRecord
100
AcDbBlockTableRecord
  2
PROTO
340
0
102
{BLKREFS
331
456
102
}
 70
     0
280
     1
281
     0
  0
BLOCK_RECORD
  5
473
330
1
100
AcDbSymbolTableRecord
100
AcDbBlockTableRecord
  2
GEN_BLOCK00013
340
0
102
{BLKREFS
331
476
102
}
 70
     0
280
     1
281
     0
  0
BLOCK_RECORD
  5
478
330
1
100
AcDbSymbolTableRecord
100
AcDbBlockTableRecord
  2
GEN_BLOCK00014
340
0
102
{BLKREFS
331
47B
102
}
 70
     0
280
     1
281
     0
  0
BLOCK_RECORD
  5
47D
330
1
100
AcDbSymbolTableRecord
100
AcDbBlockTableRecord
  2
GEN_BLOCK00015
340
0
102
{BLKREFS
331
480
102
}
 70
     0
280
     1
281
     0
  0
BLOCK_RECORD
  5
4E6
330
1
100
AcDbSymbolTableRecord
100
AcDbBlockTableRecord
  2
GEN_BLOCK00016
340
0
102
{BLKREFS
331
4E9
102
}
 70
     0
280
     1
281
     0
  0
BLOCK_RECORD
  5
4EB
330
1
100
AcDbSymbolTableRecord
100
AcDbBlockTableRecord
  2
GEN_BLOCK00017
340
0
102
{BLKREFS
331
4EE
102
}
 70
     0
280
     1
281
     0
  0
BLOCK_RECORD
  5
4F0
330
1
100
AcDbSymbolTableRecord
100
AcDbBlockTableRecord
  2
GEN_BLOCK00018
340
0
102
{BLKREFS
331
4F3
102
}
 70
     0
280
     1
281
     0
  0
ENDTAB
  0
ENDSEC
  0
SECTION
  2
BLOCKS
  0
BLOCK
  5
20
330
1F
100
AcDbEntity
  8
0
100
AcDbBlockBegin
  2
*Model_Space
 70
     0
 10
0.0
 20
0.0
 30
0.0
  3
*Model_Space
  1
*Model_Space
  0
ENDBLK
  5
21
330
1F
100
AcDbEntity
  8
0
100
AcDbBlockEnd
  0
BLOCK
  5
1C
330
1B
100
AcDbEntity
 67
     1
  8
0
100
AcDbBlockBegin
  2
*Paper_Space
 70
     0
 10
0.0
 20
0.0
 30
0.0
  3
*Paper_Space
  1
*Paper_Space
  0
ENDBLK
  5
1D
330
1B
100
AcDbEntity
 67
     1
  8
0
100
AcDbBlockEnd
  0
BLOCK
  5
24
330
23
100
AcDbEntity
  8
0
100
AcDbBlockBegin
  2
*Paper_Space0
 70
     0
 10
0.0
 20
0.0
 30
0.0
  3
*Paper_Space0
  1
*Paper_Space0
  0
ENDBLK
  5
25
330
23
100
AcDbEntity
  8
0
100
AcDbBlockEnd
  0
BLOCK
  5
76
330
75
100
AcDbEntity
  8
0
100
AcDbBlockBegin
  2
GEN_BLOCK
 70
     0
 10
0.0
 20
0.0
 30
0.0
  3
GEN_BLOCK
  1
GEN_BLOCK
  0
LINE
  5
79
330
75
100
AcDbEntity
  8
0
  6
Continuous
 62
     9
100
AcDbLine
 10
0.0000026988430477
 20
0.0000072407879657
 30
0.0
 11
0.0000026988430477
 21
278.0594585255471
 31
0.0
  0
LINE
  5
7A
330
75
100
AcDbEntity
  8
0
  6
Continuous
 62
     9
100
AcDbLine
 10
0.0000026988430477
 20
0.0000072407879657
 30
0.0
 11
199.0200119639592
 21
0.0000072407879657
 31
0.0
  0
LINE
  5
7B
330
75
100
AcDbEntity
  8
0
  6
Continuous
 62
     9
100
AcDbLine
 10
0.0000026988430477
 20
278.0594585255471
 30
0.0
 11
199.0200119639592
 21
278.0594585255471
 31
0.0
  0
LINE
  5
7C
330
75
100
AcDbEntity
  8
0
  6
Continuous
 62
     9
100
AcDbLine
 10
0.0000026988430477
 20
20.00000724078797
 30
0.0
 11
199.0200119639592
 21
20.00000724078798
 31
0.0
  0
LINE
  5
7D
330
75
100
AcDbEntity
  8
0
  6
Continuous
 62
     9
100
AcDbLine
 10
120.000002698843
 20
20.00000724078797
 30
0.0
 11
120.000002698843
 21
0.0000072407879657
 31
0.0
  0
LINE
  5
7E
330
75
100
AcDbEntity
  8
0
  6
Continuous
 62
     9
100
AcDbLine
 10
104.7450599639593
 20
40.00000724078797
 30
0.0
 11
104.7450599639593
 21
20.00000724078797
 31
0.0
  0
LINE
  5
7F
330
75
100
AcDbEntity
  8
0
  6
Continuous
 62
     9
100
AcDbLine
 10
136.1700439639593
 20
20.00000724078797
 30
0.0
 11
136.1700439639593
 21
40.00000724078797
 31
0.0
  0
LINE
  5
80
330
75
100
AcDbEntity
  8
0
  6
Continuous
 62
     9
100
AcDbLine
 10
167.5950279639593
 20
20.00000724078797
 30
0.0
 11
167.5950279639593
 21
40.00000724078797
 31
0.0
  0
LINE
  5
81
330
75
100
AcDbEntity
  8
0
  6
Continuous
 62
     9
100
AcDbLine
 10
120.000002698843
 20
10.00000724078797
 30
0.0
 11
199.0200119639592
 21
10.00000724078801
 31
0.0
  0
LINE
  5
82
330
75
100
AcDbEntity
  8
0
  6
Continuous
 62
     9
100
AcDbLine
 10
104.7450599639593
 20
40.00000724078797
 30
0.0
 11
199.0200119639592
 21
40.00000724078797
 31
0.0
  0
LINE
  5
83
330
75
100
AcDbEntity
  8
0
  6
Continuous
 62
     9
100
AcDbLine
 10
104.7450599639593
 20
30.00000724078797
 30
0.0
 11
199.0200119639592
 21
30.00000724078797
 31
0.0
  0
ENDBLK
  5
77
330
75
100
AcDbEntity
  8
0
100
AcDbBlockEnd
  0
BLOCK
  5
86
330
85
100
AcDbEntity
  8
0
100
AcDbBlockBegin
  2
GEN_BLOCK00000
 70
     0
 10
0.0
 20
0.0
 30
0.0
  3
GEN_BLOCK00000
  1
GEN_BLOCK00000
  0
LINE
  5
89
330
85
100
AcDbEntity
  8
1
  6
Continuous
 62
     3
100
AcDbLine
 10
-0.0000014060007985
 20
-0.0000011447413684
 30
0.0
 11
0.4999985939992015
 21
0.4999988552586316
 31
0.0
  0
ENDBLK
  5
87
330
85
100
AcDbEntity
  8
0
100
AcDbBlockEnd
  0
BLOCK
  5
8B
330
8A
100
AcDbEntity
  8
0
100
AcDbBlockBegin
  2
GEN_BLOCK00001
 70
     0
 10
0.0
 20
0.0
 30
0.0
  3
GEN_BLOCK00001
  1
GEN_BLOCK00001
  0
LINE
  5
8E
330
8A
100
AcDbEntity
  8
1
  6
Continuous
 62
     3
100
AcDbLine
 10
-0.0000014060007985
 20
-0.0000011447413684
 30
0.0
 11
0.4999985939992015
 21
0.4999988552586316
 31
0.0
  0
ENDBLK
  5
8C
330
8A
100
AcDbEntity
  8
0
100
AcDbBlockEnd
  0
BLOCK
  5
90
330
8F
100
AcDbEntity
  8
0
100
AcDbBlockBegin
  2
GEN_BLOCK00002
 70
     0
 10
0.0
 20
0.0
 30
0.0
  3
GEN_BLOCK00002
  1
GEN_BLOCK00002
  0
LINE
  5
93
330
8F
100
AcDbEntity
  8
1
  6
Continuous
 62
     3
100
AcDbLine
 10
-0.0000014060007985
 20
0.4999988552586316
 30
0.0
 11
0.4999985939992015
 21
-0.0000011447413684
 31
0.0
  0
ENDBLK
  5
91
330
8F
100
AcDbEntity
  8
0
100
AcDbBlockEnd
  0
BLOCK
  5
96
330
95
100
AcDbEntity
  8
0
100
AcDbBlockBegin
  2
8569S
 70
     2
 10
0.0
 20
0.0
 30
0.0
  3
8569S
  1
8569S
  0
ATTDEF
  5
98
330
95
100
AcDbEntity
  8
FIXING
100
AcDbText
 10
0.0
 20
0.0
 30
0.0
 40
1.0
  1

100
AcDbAttributeDefinition
  3
Enter PAT_NAME
  2
PAT_NAME
 70
     0
280
     0
  0
TEXT
  5
9C
330
95
100
AcDbEntity
  8
FIXING
  6
Continuous
 62
    15
100
AcDbText
 10
96.23795700073242
 20
30.19695281982422
 30
0.0
 40
2.5
  1
1:1             PBA
  7
VERDANA
100
AcDbText
  0
TEXT
  5
9D
330
95
100
AcDbEntity
  8
FIXING
  6
Continuous
 62
    15
100
AcDbText
 10
85.66683959960938
 20
10.88182067871094
 30
0.0
 40
2.5
  1
ITW
  7
VERDANA
100
AcDbText
  0
TEXT
  5
9E
330
95
100
AcDbEntity
  8
FIXING
  6
Continuous
 62
    15
100
AcDbText
 10
72.74658584594727
 20
1.09375
 30
0.0
 40
2.5
  1
INDUSTRIAL THRESHOLD
  7
VERDANA
100
AcDbText
  0
TEXT
  5
9F
330
95
100
AcDbEntity
  8
FIXING
  6
Continuous
 62
    15
100
AcDbText
 10
96.53767776489258
 20
129.212639093399
 30
0.0
 40
2.5
  1
EXPELEX
  7
VERDANA
100
AcDbText
  0
TEXT
  5
A0
330
95
100
AcDbEntity
  8
FIXING
  6
Continuous
 62
    15
100
AcDbText
 10
96.53767776489258
 20
124.212639093399
 30
0.0
 40
2.5
  1
DEFLECTOR
  7
VERDANA
100
AcDbText
  0
TEXT
  5
A1
330
95
100
AcDbEntity
  8
FIXING
  6
Continuous
 62
    15
100
AcDbText
 10
5.930686950683594
 20
154.9035720825195
 30
0.0
 40
2.5
  1
PANIC
  7
VERDANA
100
AcDbText
  0
TEXT
  5
A2
330
95
100
AcDbEntity
  8
FIXING
  6
Continuous
 62
    15
100
AcDbText
 10
5.930686950683594
 20
149.9035720825195
 30
0.0
 40
2.5
  1
BOLT
  7
VERDANA
100
AcDbText
  0
TEXT
  5
A3
330
95
100
AcDbEntity
  8
FIXING
  6
Continuous
 62
    15
100
AcDbText
 10
5.930686950683594
 20
144.9035720825195
 30
0.0
 40
2.5
  1
SETUP
  7
VERDANA
100
AcDbText
  0
TEXT
  5
A4
330
95
100
AcDbEntity
  8
FIXING
  6
Continuous
 62
    15
100
AcDbText
 10
1.202304840087891
 20
74.54164505004883
 30
0.0
 40
2.5
  1
ITW SILL
  7
VERDANA
100
AcDbText
  0
LINE
  5
A5
330
95
100
AcDbEntity
  8
FIXING
  6
Continuous
 62
     4
100
AcDbLine
 10
94.03683769808126
 20
126.9633878259015
 30
0.0
 11
85.19944268944022
 21
122.6785902459543
 31
0.0
  0
LINE
  5
A6
330
95
100
AcDbEntity
  8
FIXING
  6
Continuous
 62
     4
100
AcDbLine
 10
88.22609014091834
 20
123.3125501851153
 30
0.0
 11
85.19944268944022
 21
122.6785902459543
 31
0.0
  0
LINE
  5
A7
330
95
100
AcDbEntity
  8
FIXING
  6
Continuous
 62
     4
100
AcDbLine
 10
85.19944268944022
 20
122.6785902459543
 30
0.0
 11
87.57167988113929
 21
124.6622713459096
 31
0.0
  0
LINE
  5
A8
330
95
100
AcDbEntity
  8
FIXING
  6
Continuous
 62
     4
100
AcDbLine
 10
21.19527883897943
 20
75.81361671528222
 30
0.0
 11
38.0666693100214
 21
89.47140900136381
 31
0.0
  0
LINE
  5
A9
330
95
100
AcDbEntity
  8
FIXING
  6
Continuous
 62
     4
100
AcDbLine
 10
35.26303602639797
 20
88.16674796839054
 30
0.0
 11
38.0666693100214
 21
89.47140900136381
 31
0.0
  0
LINE
  5
AA
330
95
100
AcDbEntity
  8
FIXING
  6
Continuous
 62
     4
100
AcDbLine
 10
38.0666693100214
 20
89.47140900136381
 30
0.0
 11
36.20683336939992
 21
87.00088066232931
 31
0.0
  0
LINE
  5
AB
330
95
100
AcDbEntity
  8
FIXING
  6
Continuous
 62
     3
100
AcDbLine
 10
21.20746775785253
 20
127.6741370468336
 30
0.0
 11
21.20736775785252
 21
132.4053370468332
 31
0.0
  0
LINE
  5
AC
330
95
100
AcDbEntity
  8
FIXING
  6
Continuous
 62
     3
100
AcDbLine
 10
21.20736775785252
 20
132.4053370468332
 30
0.0
 11
21.20746775785253
 21
127.6741370468336
 31
0.0
  0
LINE
  5
AD
330
95
100
AcDbEntity
  8
FIXING
  6
Continuous
 62
     3
100
AcDbLine
 10
21.20746775785253
 20
127.6741370468336
 30
0.0
 11
20.80049307140939
 21
128.6813466788522
 31
0.0
  0
ARC
  5
AE
330
95
100
AcDbEntity
  8
FIXING
  6
Continuous
 62
     3
100
AcDbCircle
 10
25.61240772706157
 20
130.0398301519647
 30
0.0
 40
5.0
100
AcDbArc
 50
164.232322918475
 51
195.7652550414715
  0
ARC
  5
AF
330
95
100
AcDbEntity
  8
FIXING
  6
Continuous
 62
     3
100
AcDbCircle
 10
25.61240772706157
 20
130.0398301519647
 30
0.0
 40
5.0
100
AcDbArc
 50
164.232322918475
 51
195.7652550414715
  0
LINE
  5
B0
330
95
100
AcDbEntity
  8
FIXING
  6
Continuous
 62
     3
100
AcDbLine
 10
21.20736775785252
 20
132.4053370468332
 30
0.0
 11
20.80055050230128
 21
131.3985170358795
 31
0.0
  0
LINE
  5
B1
330
95
100
AcDbEntity
  8
FIXING
  6
Continuous
 62
     3
100
AcDbLine
 10
21.96136775785253
 20
126.7188370468335
 30
0.0
 11
21.96126775785255
 21
133.3606370468333
 31
0.0
  0
LINE
  5
B2
330
95
100
AcDbEntity
  8
FIXING
  6
Continuous
 62
     3
100
AcDbLine
 10
21.20736775785254
 20
132.4053370468333
 30
0.0
 11
21.20746775785254
 21
127.6741370468336
 31
0.0
  0
LINE
  5
B3
330
95
100
AcDbEntity
  8
FIXING
  6
Continuous
 62
     3
100
AcDbLine
 10
21.20746775785254
 20
127.6741370468336
 30
0.0
 11
21.59346775785254
 21
126.7188370468335
 31
0.0
  0
LINE
  5
B4
330
95
100
AcDbEntity
  8
FIXING
  6
Continuous
 62
     3
100
AcDbLine
 10
21.59346775785254
 20
126.7188370468335
 30
0.0
 11
21.59336775785253
 21
133.3606370468333
 31
0.0
  0
LINE
  5
B5
330
95
100
AcDbEntity
  8
FIXING
  6
Continuous
 62
     3
100
AcDbLine
 10
21.20746775785254
 20
127.6741370468336
 30
0.0
 11
21.20736775785254
 21
132.4053370468333
 31
0.0
  0
LINE
  5
B6
330
95
100
AcDbEntity
  8
FIXING
  6
Continuous
 62
     3
100
AcDbLine
 10
21.20736775785254
 20
132.4053370468333
 30
0.0
 11
21.59336775785253
 21
133.3606370468333
 31
0.0
  0
LINE
  5
B7
330
95
100
AcDbEntity
  8
FIXING
  6
Continuous
 62
     3
100
AcDbLine
 10
21.59336775785253
 20
133.3606370468333
 30
0.0
 11
21.96126775785255
 21
133.3606370468333
 31
0.0
  0
LINE
  5
B8
330
95
100
AcDbEntity
  8
FIXING
  6
Continuous
 62
     3
100
AcDbLine
 10
21.59346775785254
 20
126.7188370468335
 30
0.0
 11
21.96136775785253
 21
126.7188370468335
 31
0.0
  0
ENDBLK
  5
97
330
95
100
AcDbEntity
  8
0
100
AcDbBlockEnd
  0
BLOCK
  5
BB
330
BA
100
AcDbEntity
  8
0
100
AcDbBlockBegin
  2
GEN_BLOCK00003
 70
     0
 10
0.0
 20
0.0
 30
0.0
  3
GEN_BLOCK00003
  1
GEN_BLOCK00003
  0
LINE
  5
BE
330
BA
100
AcDbEntity
  8
GEN_LAYER
  6
Continuous
 62
     3
100
AcDbLine
 10
1.326510042047282
 20
5.913162871707499
 30
0.0
 11
2.109783853089539
 21
6.696436682749706
 31
0.0
  0
LINE
  5
BF
330
BA
100
AcDbEntity
  8
GEN_LAYER
  6
Continuous
 62
     3
100
AcDbLine
 10
2.109783853089539
 20
6.696436682749706
 30
0.0
 11
3.808311990513303
 21
4.997908545325842
 31
0.0
  0
LINE
  5
C0
330
BA
100
AcDbEntity
  8
GEN_LAYER
  6
Continuous
 62
     3
100
AcDbLine
 10
3.808311990513303
 20
4.997908545325842
 30
0.0
 11
3.808311990513332
 21
1.748518210766839
 31
0.0
  0
ARC
  5
C1
330
BA
100
AcDbEntity
  8
GEN_LAYER
  6
Continuous
 62
     3
100
AcDbCircle
 10
4.408311990513326
 20
1.748518210766839
 30
0.0
 40
0.6
100
AcDbArc
 50
180.0
 51
0.0
  0
ARC
  5
C2
330
BA
100
AcDbEntity
  8
GEN_LAYER
  6
Continuous
 62
     3
100
AcDbCircle
 10
4.408311990513326
 20
1.748518210766839
 30
0.0
 40
0.6
100
AcDbArc
 50
180.0
 51
0.0
  0
LINE
  5
C3
330
BA
100
AcDbEntity
  8
GEN_LAYER
  6
Continuous
 62
     3
100
AcDbLine
 10
5.008311990513334
 20
1.748518210766839
 30
0.0
 11
5.008311990513349
 21
3.194355154732627
 31
0.0
  0
ARC
  5
C4
330
BA
100
AcDbEntity
  8
GEN_LAYER
  6
Continuous
 62
     3
100
AcDbCircle
 10
5.258311990513349
 20
3.194355154732627
 30
0.0
 40
0.25
100
AcDbArc
 50
44.99999999999885
 51
180.0
  0
ARC
  5
C5
330
BA
100
AcDbEntity
  8
GEN_LAYER
  6
Continuous
 62
     3
100
AcDbCircle
 10
5.258311990513349
 20
3.194355154732627
 30
0.0
 40
0.25
100
AcDbArc
 50
44.99999999999885
 51
180.0
  0
LINE
  5
C6
330
BA
100
AcDbEntity
  8
GEN_LAYER
  6
Continuous
 62
     3
100
AcDbLine
 10
5.435088685809994
 20
3.371131850029265
 30
0.0
 11
6.358311990513371
 21
2.447908545325625
 31
0.0
  0
LINE
  5
C7
330
BA
100
AcDbEntity
  8
GEN_LAYER
  6
Continuous
 62
     3
100
AcDbLine
 10
6.358311990513371
 20
2.447908545325625
 30
0.0
 11
6.358311990513371
 21
1.00513262828219
 31
0.0
  0
LINE
  5
C8
330
BA
100
AcDbEntity
  8
GEN_LAYER
  6
Continuous
 62
     3
100
AcDbLine
 10
5.359544492232033
 20
0.0051333878127231
 30
0.0
 11
1.195193326605079
 21
0.0000008139475227
 31
0.0
  0
LINE
  5
C9
330
BA
100
AcDbEntity
  8
GEN_LAYER
  6
Continuous
 62
     3
100
AcDbLine
 10
1.326510042047289
 20
5.913162871707506
 30
0.0
 11
-0.0000003039878749
 21
4.586652525672541
 31
0.0
  0
LINE
  5
CA
330
BA
100
AcDbEntity
  8
GEN_LAYER
  6
Continuous
 62
     3
100
AcDbLine
 10
0.2003373846465024
 20
4.78699021430689
 30
0.0
 11
0.1939622431167152
 21
1.001684233323633
 31
0.0
  0
ARC
  5
CB
330
BA
100
AcDbEntity
  8
GEN_LAYER
  6
Continuous
 62
     3
100
AcDbCircle
 10
5.358311990513371
 20
1.00513262828219
 30
0.0
 40
1.0
100
AcDbArc
 50
270.0
 51
0.0
  0
ARC
  5
CC
330
BA
100
AcDbEntity
  8
GEN_LAYER
  6
Continuous
 62
     3
100
AcDbCircle
 10
5.358311990513371
 20
1.00513262828219
 30
0.0
 40
1.0
100
AcDbArc
 50
270.0
 51
0.0
  0
ARC
  5
CD
330
BA
100
AcDbEntity
  8
GEN_LAYER
  6
Continuous
 62
     3
100
AcDbCircle
 10
1.193960824886418
 20
1.00000005441699
 30
0.0
 40
1.0
100
AcDbArc
 50
180.0
 51
270.0
  0
ARC
  5
CE
330
BA
100
AcDbEntity
  8
GEN_LAYER
  6
Continuous
 62
     3
100
AcDbCircle
 10
1.193960824886418
 20
1.00000005441699
 30
0.0
 40
1.0
100
AcDbArc
 50
180.0
 51
270.0
  0
LINE
  5
CF
330
BA
100
AcDbEntity
  8
GEN_LAYER
  6
Continuous
 62
     3
100
AcDbLine
 10
1.231902811029762
 20
4.333392295593562
 30
0.0
 11
1.530613961411504
 21
4.731673829435884
 31
0.0
  0
LINE
  5
D0
330
BA
100
AcDbEntity
  8
GEN_LAYER
  6
Continuous
 62
     3
100
AcDbLine
 10
1.530613961411504
 20
4.731673829435884
 30
0.0
 11
1.772427749815776
 21
5.158404044266952
 31
0.0
  0
LINE
  5
D1
330
BA
100
AcDbEntity
  8
GEN_LAYER
  6
Continuous
 62
     3
100
AcDbLine
 10
1.772427749815776
 20
5.158404044266952
 30
0.0
 11
1.98579285723131
 21
5.343320470693747
 31
0.0
  0
LINE
  5
D2
330
BA
100
AcDbEntity
  8
GEN_LAYER
  6
Continuous
 62
     3
100
AcDbLine
 10
1.98579285723131
 20
5.343320470693747
 30
0.0
 11
2.15648494316374
 21
5.201077065750063
 31
0.0
  0
LINE
  5
D3
330
BA
100
AcDbEntity
  8
GEN_LAYER
  6
Continuous
 62
     3
100
AcDbLine
 10
2.15648494316374
 20
5.201077065750063
 30
0.0
 11
2.910374989365295
 21
4.646327786469676
 31
0.0
  0
LINE
  5
D4
330
BA
100
AcDbEntity
  8
GEN_LAYER
  6
Continuous
 62
     3
100
AcDbLine
 10
2.910374989365295
 20
4.646327786469676
 30
0.0
 11
2.953048010848399
 21
1.019120960405601
 31
0.0
  0
LINE
  5
D5
330
BA
100
AcDbEntity
  8
GEN_LAYER
  6
Continuous
 62
     3
100
AcDbLine
 10
2.953048010848399
 20
1.019120960405601
 30
0.0
 11
1.388370556467819
 21
0.8484288744731749
 31
0.0
  0
LINE
  5
D6
330
BA
100
AcDbEntity
  8
GEN_LAYER
  6
Continuous
 62
     3
100
AcDbLine
 10
1.388370556467819
 20
0.8484288744731749
 30
0.0
 11
1.118108087074809
 21
1.118691343866185
 31
0.0
  0
LINE
  5
D7
330
BA
100
AcDbEntity
  8
GEN_LAYER
  6
Continuous
 62
     3
100
AcDbLine
 10
1.118108087074809
 20
1.118691343866185
 30
0.0
 11
0.9758646821311174
 21
1.403178153753565
 31
0.0
  0
LINE
  5
D8
330
BA
100
AcDbEntity
  8
GEN_LAYER
  6
Continuous
 62
     3
100
AcDbLine
 10
0.9758646821311174
 20
1.403178153753565
 30
0.0
 11
0.9616403416367518
 21
1.644991942157837
 31
0.0
  0
LINE
  5
D9
330
BA
100
AcDbEntity
  8
GEN_LAYER
  6
Continuous
 62
     3
100
AcDbLine
 10
0.9616403416367518
 20
1.644991942157837
 30
0.0
 11
1.260351492018501
 21
2.000600454517055
 31
0.0
  0
LINE
  5
DA
330
BA
100
AcDbEntity
  8
GEN_LAYER
  6
Continuous
 62
     3
100
AcDbLine
 10
1.260351492018501
 20
2.000600454517055
 30
0.0
 11
1.687081706849568
 21
2.41310632885375
 31
0.0
  0
LINE
  5
DB
330
BA
100
AcDbEntity
  8
GEN_LAYER
  6
Continuous
 62
     3
100
AcDbLine
 10
1.687081706849568
 20
2.41310632885375
 30
0.0
 11
1.800876430804522
 21
2.967855608134137
 31
0.0
  0
LINE
  5
DC
330
BA
100
AcDbEntity
  8
GEN_LAYER
  6
Continuous
 62
     3
100
AcDbLine
 10
1.800876430804522
 20
2.967855608134137
 30
0.0
 11
1.644408685366457
 21
3.209669396538409
 31
0.0
  0
LINE
  5
DD
330
BA
100
AcDbEntity
  8
GEN_LAYER
  6
Continuous
 62
     3
100
AcDbLine
 10
1.644408685366457
 20
3.209669396538409
 30
0.0
 11
1.388370556467819
 21
3.479931865931427
 31
0.0
  0
LINE
  5
DE
330
BA
100
AcDbEntity
  8
GEN_LAYER
  6
Continuous
 62
     3
100
AcDbLine
 10
1.388370556467819
 20
3.479931865931427
 30
0.0
 11
1.21767847053539
 21
3.721745654335692
 31
0.0
  0
LINE
  5
DF
330
BA
100
AcDbEntity
  8
GEN_LAYER
  6
Continuous
 62
     3
100
AcDbLine
 10
1.21767847053539
 20
3.721745654335692
 30
0.0
 11
1.160781108557913
 21
4.02045680471744
 31
0.0
  0
LINE
  5
E0
330
BA
100
AcDbEntity
  8
GEN_LAYER
  6
Continuous
 62
     3
100
AcDbLine
 10
1.160781108557913
 20
4.02045680471744
 30
0.0
 11
1.189229789546658
 21
4.333392295593562
 31
0.0
  0
LINE
  5
E1
330
BA
100
AcDbEntity
  8
GEN_LAYER
  6
Continuous
 62
     3
100
AcDbLine
 10
1.189229789546658
 20
4.333392295593562
 30
0.0
 11
1.231902811029762
 21
4.333392295593562
 31
0.0
  0
LINE
  5
E2
330
BA
100
AcDbEntity
  8
GEN_LAYER
  6
Continuous
 62
     3
100
AcDbLine
 10
1.231902811029762
 20
4.333392295593562
 30
0.0
 11
1.772427749815776
 21
5.158404044266952
 31
0.0
  0
ENDBLK
  5
BC
330
BA
100
AcDbEntity
  8
0
100
AcDbBlockEnd
  0
BLOCK
  5
E4
330
E3
100
AcDbEntity
  8
0
100
AcDbBlockBegin
  2
GEN_BLOCK00004
 70
     0
 10
0.0
 20
0.0
 30
0.0
  3
GEN_BLOCK00004
  1
GEN_BLOCK00004
  0
LINE
  5
E7
330
E3
100
AcDbEntity
  8
1
  6
Continuous
 62
     3
100
AcDbLine
 10
-0.0000014060007985
 20
-0.0000011447413684
 30
0.0
 11
0.4999985939992015
 21
0.4999988552586316
 31
0.0
  0
ENDBLK
  5
E5
330
E3
100
AcDbEntity
  8
0
100
AcDbBlockEnd
  0
BLOCK
  5
E9
330
E8
100
AcDbEntity
  8
0
100
AcDbBlockBegin
  2
GEN_BLOCK00005
 70
     0
 10
0.0
 20
0.0
 30
0.0
  3
GEN_BLOCK00005
  1
GEN_BLOCK00005
  0
LINE
  5
EC
330
E8
100
AcDbEntity
  8
0
  6
Continuous
 62
     1
100
AcDbLine
 10
0.5007727650647951
 20
10.72231454833349
 30
0.0
 11
0.5224080893856637
 21
10.33289468775541
 31
0.0
  0
LINE
  5
ED
330
E8
100
AcDbEntity
  8
0
  6
Continuous
 62
     1
100
AcDbLine
 10
0.5224080893856637
 20
10.33289468775541
 30
0.0
 11
0.5872547614283405
 21
9.94454219994708
 31
0.0
  0
LINE
  5
EE
330
E8
100
AcDbEntity
  8
0
  6
Continuous
 62
     1
100
AcDbLine
 10
0.5872547614283405
 20
9.94454219994708
 30
0.0
 11
0.6951350409720192
 21
9.55832153208297
 31
0.0
  0
LINE
  5
EF
330
E8
100
AcDbEntity
  8
0
  6
Continuous
 62
     1
100
AcDbLine
 10
0.6951350409720192
 20
9.55832153208297
 30
0.0
 11
0.8457532356694912
 21
9.175291288168808
 31
0.0
  0
LINE
  5
F0
330
E8
100
AcDbEntity
  8
0
  6
Continuous
 62
     1
100
AcDbLine
 10
0.8457532356694912
 20
9.175291288168808
 30
0.0
 11
1.038696511518339
 21
8.796501327478325
 31
0.0
  0
LINE
  5
F1
330
E8
100
AcDbEntity
  8
0
  6
Continuous
 62
     1
100
AcDbLine
 10
1.038696511518339
 20
8.796501327478325
 30
0.0
 11
1.273436024410131
 21
8.42298988696433
 31
0.0
  0
LINE
  5
F2
330
E8
100
AcDbEntity
  8
0
  6
Continuous
 62
     1
100
AcDbLine
 10
1.273436024410131
 20
8.42298988696433
 30
0.0
 11
1.549328369657616
 21
8.055780735523456
 31
0.0
  0
LINE
  5
F3
330
E8
100
AcDbEntity
  8
0
  6
Continuous
 62
     1
100
AcDbLine
 10
1.549328369657616
 20
8.055780735523456
 30
0.0
 11
1.865617345518586
 21
7.695880367914867
 31
0.0
  0
LINE
  5
F4
330
E8
100
AcDbEntity
  8
0
  6
Continuous
 62
     1
100
AcDbLine
 10
1.865617345518586
 20
7.695880367914867
 30
0.0
 11
2.221436025896111
 21
7.344275246029554
 31
0.0
  0
LINE
  5
F5
330
E8
100
AcDbEntity
  8
0
  6
Continuous
 62
     1
100
AcDbLine
 10
2.221436025896111
 20
7.344275246029554
 30
0.0
 11
2.615809136518948
 21
7.001929095067624
 31
0.0
  0
LINE
  5
F6
330
E8
100
AcDbEntity
  8
0
  6
Continuous
 62
     1
100
AcDbLine
 10
2.615809136518948
 20
7.001929095067624
 30
0.0
 11
3.04765572810382
 21
6.669780262032361
 31
0.0
  0
LINE
  5
F7
330
E8
100
AcDbEntity
  8
0
  6
Continuous
 62
     1
100
AcDbLine
 10
3.04765572810382
 20
6.669780262032361
 30
0.0
 11
3.515792139160823
 21
6.348739143787441
 31
0.0
  0
LINE
  5
F8
330
E8
100
AcDbEntity
  8
0
  6
Continuous
 62
     1
100
AcDbLine
 10
3.515792139160823
 20
6.348739143787441
 30
0.0
 11
4.018935240326556
 21
6.039685691722696
 31
0.0
  0
LINE
  5
F9
330
E8
100
AcDbEntity
  8
0
  6
Continuous
 62
     1
100
AcDbLine
 10
4.018935240326556
 20
6.039685691722696
 30
0.0
 11
4.555705951334204
 21
5.743466999868758
 31
0.0
  0
LINE
  5
FA
330
E8
100
AcDbEntity
  8
0
  6
Continuous
 62
     1
100
AcDbLine
 10
4.555705951334204
 20
5.743466999868758
 30
0.0
 11
5.124633020974471
 21
5.460894983069409
 31
0.0
  0
LINE
  5
FB
330
E8
100
AcDbEntity
  8
0
  6
Continuous
 62
     1
100
AcDbLine
 10
5.124633020974471
 20
5.460894983069409
 30
0.0
 11
5.72415705969641
 21
5.192744151581735
 31
0.0
  0
LINE
  5
FC
330
E8
100
AcDbEntity
  8
0
  6
Continuous
 62
     1
100
AcDbLine
 10
5.72415705969641
 20
5.192744151581735
 30
0.0
 11
6.352634813781407
 21
4.939749488195901
 31
0.0
  0
LINE
  5
FD
330
E8
100
AcDbEntity
  8
0
  6
Continuous
 62
     1
100
AcDbLine
 10
6.352634813781407
 20
4.939749488195901
 30
0.0
 11
7.008343669390598
 21
4.702604433698923
 31
0.0
  0
LINE
  5
FE
330
E8
100
AcDbEntity
  8
0
  6
Continuous
 62
     1
100
AcDbLine
 10
7.008343669390598
 20
4.702604433698923
 30
0.0
 11
7.689486374128848
 21
4.481958986200823
 31
0.0
  0
LINE
  5
FF
330
E8
100
AcDbEntity
  8
0
  6
Continuous
 62
     1
100
AcDbLine
 10
7.689486374128848
 20
4.481958986200823
 30
0.0
 11
8.394195963187741
 21
4.278417919536821
 31
0.0
  0
LINE
  5
100
330
E8
100
AcDbEntity
  8
0
  6
Continuous
 62
     1
100
AcDbLine
 10
8.394195963187741
 20
4.278417919536821
 30
0.0
 11
9.120540876567503
 21
4.09253912562275
 31
0.0
  0
LINE
  5
101
330
E8
100
AcDbEntity
  8
0
  6
Continuous
 62
     1
100
AcDbLine
 10
9.120540876567503
 20
4.09253912562275
 30
0.0
 11
9.866530253347975
 21
3.924832085312516
 31
0.0
  0
LINE
  5
102
330
E8
100
AcDbEntity
  8
0
  6
Continuous
 62
     1
100
AcDbLine
 10
9.866530253347975
 20
3.924832085312516
 30
0.0
 11
10.6301193885013
 21
3.77575647194584
 31
0.0
  0
LINE
  5
103
330
E8
100
AcDbEntity
  8
0
  6
Continuous
 62
     1
100
AcDbLine
 10
10.6301193885013
 20
3.77575647194584
 30
0.0
 11
11.40921533728331
 21
3.645720891417056
 31
0.0
  0
LINE
  5
104
330
E8
100
AcDbEntity
  8
0
  6
Continuous
 62
     1
100
AcDbLine
 10
11.40921533728331
 20
3.645720891417056
 30
0.0
 11
12.20168265185364
 21
3.535081762214247
 31
0.0
  0
LINE
  5
105
330
E8
100
AcDbEntity
  8
0
  6
Continuous
 62
     1
100
AcDbLine
 10
12.20168265185364
 20
3.535081762214247
 30
0.0
 11
13.00534923438661
 21
3.444142338499603
 31
0.0
  0
LINE
  5
106
330
E8
100
AcDbEntity
  8
0
  6
Continuous
 62
     1
100
AcDbLine
 10
13.00534923438661
 20
3.444142338499603
 30
0.0
 11
13.81801229064129
 21
3.373151878912665
 31
0.0
  0
LINE
  5
107
330
E8
100
AcDbEntity
  8
0
  6
Continuous
 62
     1
100
AcDbLine
 10
13.81801229064129
 20
3.373151878912665
 30
0.0
 11
14.63744436766845
 21
3.322304963368822
 31
0.0
  0
LINE
  5
108
330
E8
100
AcDbEntity
  8
0
  6
Continuous
 62
     1
100
AcDbLine
 10
14.63744436766845
 20
3.322304963368822
 30
0.0
 11
15.46139945910207
 21
3.291740959728429
 31
0.0
  0
LINE
  5
109
330
E8
100
AcDbEntity
  8
0
  6
Continuous
 62
     1
100
AcDbLine
 10
15.46139945910207
 20
3.291740959728429
 30
0.0
 11
16.28761916131023
 21
3.281543641801761
 31
0.0
  0
LINE
  5
10A
330
E8
100
AcDbEntity
  8
0
  6
Continuous
 62
     1
100
AcDbLine
 10
16.28761916131023
 20
3.281543641801761
 30
0.0
 11
17.1138388635184
 21
3.291740959728429
 31
0.0
  0
LINE
  5
10B
330
E8
100
AcDbEntity
  8
0
  6
Continuous
 62
     1
100
AcDbLine
 10
17.1138388635184
 20
3.291740959728429
 30
0.0
 11
17.93779395495247
 21
3.322304963368822
 31
0.0
  0
LINE
  5
10C
330
E8
100
AcDbEntity
  8
0
  6
Continuous
 62
     1
100
AcDbLine
 10
17.93779395495247
 20
3.322304963368822
 30
0.0
 11
18.75722603197917
 21
3.373151878912665
 31
0.0
  0
LINE
  5
10D
330
E8
100
AcDbEntity
  8
0
  6
Continuous
 62
     1
100
AcDbLine
 10
18.75722603197917
 20
3.373151878912665
 30
0.0
 11
19.56988908823385
 21
3.444142338499603
 31
0.0
  0
LINE
  5
10E
330
E8
100
AcDbEntity
  8
0
  6
Continuous
 62
     1
100
AcDbLine
 10
19.56988908823385
 20
3.444142338499603
 30
0.0
 11
20.37355567076682
 21
3.535081762214247
 31
0.0
  0
LINE
  5
10F
330
E8
100
AcDbEntity
  8
0
  6
Continuous
 62
     1
100
AcDbLine
 10
20.37355567076682
 20
3.535081762214247
 30
0.0
 11
21.16602298533715
 21
3.645720891417056
 31
0.0
  0
LINE
  5
110
330
E8
100
AcDbEntity
  8
0
  6
Continuous
 62
     1
100
AcDbLine
 10
21.16602298533715
 20
3.645720891417056
 30
0.0
 11
21.94511893411917
 21
3.77575647194584
 31
0.0
  0
LINE
  5
111
330
E8
100
AcDbEntity
  8
0
  6
Continuous
 62
     1
100
AcDbLine
 10
21.94511893411917
 20
3.77575647194584
 30
0.0
 11
22.70870806927249
 21
3.924832085312516
 31
0.0
  0
LINE
  5
112
330
E8
100
AcDbEntity
  8
0
  6
Continuous
 62
     1
100
AcDbLine
 10
22.70870806927249
 20
3.924832085312516
 30
0.0
 11
23.45469744605342
 21
4.09253912562275
 31
0.0
  0
LINE
  5
113
330
E8
100
AcDbEntity
  8
0
  6
Continuous
 62
     1
100
AcDbLine
 10
23.45469744605342
 20
4.09253912562275
 30
0.0
 11
24.18104235943318
 21
4.278417919536821
 31
0.0
  0
LINE
  5
114
330
E8
100
AcDbEntity
  8
0
  6
Continuous
 62
     1
100
AcDbLine
 10
24.18104235943318
 20
4.278417919536821
 30
0.0
 11
24.88575194849207
 21
4.481958986200823
 31
0.0
  0
LINE
  5
115
330
E8
100
AcDbEntity
  8
0
  6
Continuous
 62
     1
100
AcDbLine
 10
24.88575194849207
 20
4.481958986200823
 30
0.0
 11
25.56689465322987
 21
4.702604433698923
 31
0.0
  0
LINE
  5
116
330
E8
100
AcDbEntity
  8
0
  6
Continuous
 62
     1
100
AcDbLine
 10
25.56689465322987
 20
4.702604433698923
 30
0.0
 11
26.22260350883906
 21
4.939749488195901
 31
0.0
  0
LINE
  5
117
330
E8
100
AcDbEntity
  8
0
  6
Continuous
 62
     1
100
AcDbLine
 10
26.22260350883906
 20
4.939749488195901
 30
0.0
 11
26.85108126292405
 21
5.192744151581735
 31
0.0
  0
LINE
  5
118
330
E8
100
AcDbEntity
  8
0
  6
Continuous
 62
     1
100
AcDbLine
 10
26.85108126292405
 20
5.192744151581735
 30
0.0
 11
27.45060530164599
 21
5.460894983069409
 31
0.0
  0
LINE
  5
119
330
E8
100
AcDbEntity
  8
0
  6
Continuous
 62
     1
100
AcDbLine
 10
27.45060530164599
 20
5.460894983069409
 30
0.0
 11
28.01953237128672
 21
5.743466999868758
 31
0.0
  0
LINE
  5
11A
330
E8
100
AcDbEntity
  8
0
  6
Continuous
 62
     1
100
AcDbLine
 10
28.01953237128672
 20
5.743466999868758
 30
0.0
 11
28.55630308229391
 21
6.039685691722696
 31
0.0
  0
LINE
  5
11B
330
E8
100
AcDbEntity
  8
0
  6
Continuous
 62
     1
100
AcDbLine
 10
28.55630308229391
 20
6.039685691722696
 30
0.0
 11
29.05944618345964
 21
6.348739143787441
 31
0.0
  0
LINE
  5
11C
330
E8
100
AcDbEntity
  8
0
  6
Continuous
 62
     1
100
AcDbLine
 10
29.05944618345964
 20
6.348739143787441
 30
0.0
 11
29.52758259451664
 21
6.669780262032361
 31
0.0
  0
LINE
  5
11D
330
E8
100
AcDbEntity
  8
0
  6
Continuous
 62
     1
100
AcDbLine
 10
29.52758259451664
 20
6.669780262032361
 30
0.0
 11
29.95942918610152
 21
7.001929095067624
 31
0.0
  0
LINE
  5
11E
330
E8
100
AcDbEntity
  8
0
  6
Continuous
 62
     1
100
AcDbLine
 10
29.95942918610152
 20
7.001929095067624
 30
0.0
 11
30.35380229672481
 21
7.344275246029554
 31
0.0
  0
LINE
  5
11F
330
E8
100
AcDbEntity
  8
0
  6
Continuous
 62
     1
100
AcDbLine
 10
30.35380229672481
 20
7.344275246029554
 30
0.0
 11
30.70962097710188
 21
7.695880367914867
 31
0.0
  0
LINE
  5
120
330
E8
100
AcDbEntity
  8
0
  6
Continuous
 62
     1
100
AcDbLine
 10
30.70962097710188
 20
7.695880367914867
 30
0.0
 11
31.02590995296285
 21
8.055780735523456
 31
0.0
  0
LINE
  5
121
330
E8
100
AcDbEntity
  8
0
  6
Continuous
 62
     1
100
AcDbLine
 10
31.02590995296285
 20
8.055780735523456
 30
0.0
 11
31.30180229821033
 21
8.42298988696433
 31
0.0
  0
LINE
  5
122
330
E8
100
AcDbEntity
  8
0
  6
Continuous
 62
     1
100
AcDbLine
 10
31.30180229821033
 20
8.42298988696433
 30
0.0
 11
31.53654181110213
 21
8.796501327478325
 31
0.0
  0
LINE
  5
123
330
E8
100
AcDbEntity
  8
0
  6
Continuous
 62
     1
100
AcDbLine
 10
31.53654181110213
 20
8.796501327478325
 30
0.0
 11
31.72948508695097
 21
9.175291288168808
 31
0.0
  0
LINE
  5
124
330
E8
100
AcDbEntity
  8
0
  6
Continuous
 62
     1
100
AcDbLine
 10
31.72948508695097
 20
9.175291288168808
 30
0.0
 11
31.88010328164845
 21
9.55832153208297
 31
0.0
  0
LINE
  5
125
330
E8
100
AcDbEntity
  8
0
  6
Continuous
 62
     1
100
AcDbLine
 10
31.88010328164845
 20
9.55832153208297
 30
0.0
 11
31.98798356119212
 21
9.94454219994708
 31
0.0
  0
LINE
  5
126
330
E8
100
AcDbEntity
  8
0
  6
Continuous
 62
     1
100
AcDbLine
 10
31.98798356119212
 20
9.94454219994708
 30
0.0
 11
32.0528302332348
 21
10.33289468775541
 31
0.0
  0
LINE
  5
127
330
E8
100
AcDbEntity
  8
0
  6
Continuous
 62
     1
100
AcDbLine
 10
32.0528302332348
 20
10.33289468775541
 30
0.0
 11
32.07446555755567
 21
10.72231454833349
 31
0.0
  0
LINE
  5
128
330
E8
100
AcDbEntity
  8
0
  6
Continuous
 62
     1
100
AcDbLine
 10
32.07446555755567
 20
10.72231454833349
 30
0.0
 11
32.0528302332348
 21
11.1117344089111
 31
0.0
  0
LINE
  5
129
330
E8
100
AcDbEntity
  8
0
  6
Continuous
 62
     1
100
AcDbLine
 10
32.0528302332348
 20
11.1117344089111
 30
0.0
 11
31.98798356119212
 21
11.50008689671989
 31
0.0
  0
LINE
  5
12A
330
E8
100
AcDbEntity
  8
0
  6
Continuous
 62
     1
100
AcDbLine
 10
31.98798356119212
 20
11.50008689671989
 30
0.0
 11
31.88010328164845
 21
11.88630756458355
 31
0.0
  0
LINE
  5
12B
330
E8
100
AcDbEntity
  8
0
  6
Continuous
 62
     1
100
AcDbLine
 10
31.88010328164845
 20
11.88630756458355
 30
0.0
 11
31.72948508695097
 21
12.26933780849771
 31
0.0
  0
LINE
  5
12C
330
E8
100
AcDbEntity
  8
0
  6
Continuous
 62
     1
100
AcDbLine
 10
31.72948508695097
 20
12.26933780849771
 30
0.0
 11
31.53654181110213
 21
12.64812776918819
 31
0.0
  0
LINE
  5
12D
330
E8
100
AcDbEntity
  8
0
  6
Continuous
 62
     1
100
AcDbLine
 10
31.53654181110213
 20
12.64812776918819
 30
0.0
 11
31.30180229821033
 21
13.02163920970219
 31
0.0
  0
LINE
  5
12E
330
E8
100
AcDbEntity
  8
0
  6
Continuous
 62
     1
100
AcDbLine
 10
31.30180229821033
 20
13.02163920970219
 30
0.0
 11
31.02590995296285
 21
13.38884836114352
 31
0.0
  0
LINE
  5
12F
330
E8
100
AcDbEntity
  8
0
  6
Continuous
 62
     1
100
AcDbLine
 10
31.02590995296285
 20
13.38884836114352
 30
0.0
 11
30.70962097710188
 21
13.7487487287521
 31
0.0
  0
LINE
  5
130
330
E8
100
AcDbEntity
  8
0
  6
Continuous
 62
     1
100
AcDbLine
 10
30.70962097710188
 20
13.7487487287521
 30
0.0
 11
30.35380229672481
 21
14.10035385063696
 31
0.0
  0
LINE
  5
131
330
E8
100
AcDbEntity
  8
0
  6
Continuous
 62
     1
100
AcDbLine
 10
30.35380229672481
 20
14.10035385063696
 30
0.0
 11
29.95942918610152
 21
14.44270000159889
 31
0.0
  0
LINE
  5
132
330
E8
100
AcDbEntity
  8
0
  6
Continuous
 62
     1
100
AcDbLine
 10
29.95942918610152
 20
14.44270000159889
 30
0.0
 11
29.52758259451664
 21
14.77484883463461
 31
0.0
  0
LINE
  5
133
330
E8
100
AcDbEntity
  8
0
  6
Continuous
 62
     1
100
AcDbLine
 10
29.52758259451664
 20
14.77484883463461
 30
0.0
 11
29.05944618345964
 21
15.09588995287953
 31
0.0
  0
LINE
  5
134
330
E8
100
AcDbEntity
  8
0
  6
Continuous
 62
     1
100
AcDbLine
 10
29.05944618345964
 20
15.09588995287953
 30
0.0
 11
28.55630308229391
 21
15.40494340494382
 31
0.0
  0
LINE
  5
135
330
E8
100
AcDbEntity
  8
0
  6
Continuous
 62
     1
100
AcDbLine
 10
28.55630308229391
 20
15.40494340494382
 30
0.0
 11
28.01953237128672
 21
15.70116209679821
 31
0.0
  0
LINE
  5
136
330
E8
100
AcDbEntity
  8
0
  6
Continuous
 62
     1
100
AcDbLine
 10
28.01953237128672
 20
15.70116209679821
 30
0.0
 11
27.45060530164599
 21
15.98373411359711
 31
0.0
  0
LINE
  5
137
330
E8
100
AcDbEntity
  8
0
  6
Continuous
 62
     1
100
AcDbLine
 10
27.45060530164599
 20
15.98373411359711
 30
0.0
 11
26.85108126292405
 21
16.25188494508478
 31
0.0
  0
LINE
  5
138
330
E8
100
AcDbEntity
  8
0
  6
Continuous
 62
     1
100
AcDbLine
 10
26.85108126292405
 20
16.25188494508478
 30
0.0
 11
26.22260350883906
 21
16.50487960847062
 31
0.0
  0
LINE
  5
139
330
E8
100
AcDbEntity
  8
0
  6
Continuous
 62
     1
100
AcDbLine
 10
26.22260350883906
 20
16.50487960847062
 30
0.0
 11
25.56689465322987
 21
16.74202466296805
 31
0.0
  0
LINE
  5
13A
330
E8
100
AcDbEntity
  8
0
  6
Continuous
 62
     1
100
AcDbLine
 10
25.56689465322987
 20
16.74202466296805
 30
0.0
 11
24.88575194849207
 21
16.96267011046569
 31
0.0
  0
LINE
  5
13B
330
E8
100
AcDbEntity
  8
0
  6
Continuous
 62
     1
100
AcDbLine
 10
24.88575194849207
 20
16.96267011046569
 30
0.0
 11
24.18104235943318
 21
17.1662111771297
 31
0.0
  0
LINE
  5
13C
330
E8
100
AcDbEntity
  8
0
  6
Continuous
 62
     1
100
AcDbLine
 10
24.18104235943318
 20
17.1662111771297
 30
0.0
 11
23.45469744605342
 21
17.35208997104377
 31
0.0
  0
LINE
  5
13D
330
E8
100
AcDbEntity
  8
0
  6
Continuous
 62
     1
100
AcDbLine
 10
23.45469744605342
 20
17.35208997104377
 30
0.0
 11
22.70870806927249
 21
17.51979701135446
 31
0.0
  0
LINE
  5
13E
330
E8
100
AcDbEntity
  8
0
  6
Continuous
 62
     1
100
AcDbLine
 10
22.70870806927249
 20
17.51979701135446
 30
0.0
 11
21.94511893411962
 21
17.66887262472113
 31
0.0
  0
LINE
  5
13F
330
E8
100
AcDbEntity
  8
0
  6
Continuous
 62
     1
100
AcDbLine
 10
21.94511893411962
 20
17.66887262472113
 30
0.0
 11
21.16602298533715
 21
17.79890820524946
 31
0.0
  0
LINE
  5
140
330
E8
100
AcDbEntity
  8
0
  6
Continuous
 62
     1
100
AcDbLine
 10
21.16602298533715
 20
17.79890820524946
 30
0.0
 11
20.37355567076682
 21
17.90954733445227
 31
0.0
  0
LINE
  5
141
330
E8
100
AcDbEntity
  8
0
  6
Continuous
 62
     1
100
AcDbLine
 10
20.37355567076682
 20
17.90954733445227
 30
0.0
 11
19.56988908823385
 21
18.00048675816691
 31
0.0
  0
LINE
  5
142
330
E8
100
AcDbEntity
  8
0
  6
Continuous
 62
     1
100
AcDbLine
 10
19.56988908823385
 20
18.00048675816691
 30
0.0
 11
18.75722603197917
 21
18.07147721775385
 31
0.0
  0
LINE
  5
143
330
E8
100
AcDbEntity
  8
0
  6
Continuous
 62
     1
100
AcDbLine
 10
18.75722603197917
 20
18.07147721775385
 30
0.0
 11
17.93779395495247
 21
18.12232413329815
 31
0.0
  0
LINE
  5
144
330
E8
100
AcDbEntity
  8
0
  6
Continuous
 62
     1
100
AcDbLine
 10
17.93779395495247
 20
18.12232413329815
 30
0.0
 11
17.1138388635184
 21
18.15288813693809
 31
0.0
  0
LINE
  5
145
330
E8
100
AcDbEntity
  8
0
  6
Continuous
 62
     1
100
AcDbLine
 10
17.1138388635184
 20
18.15288813693809
 30
0.0
 11
16.28761916131023
 21
18.16308545486476
 31
0.0
  0
LINE
  5
146
330
E8
100
AcDbEntity
  8
0
  6
Continuous
 62
     1
100
AcDbLine
 10
16.28761916131023
 20
18.16308545486476
 30
0.0
 11
15.46139945910207
 21
18.15288813693809
 31
0.0
  0
LINE
  5
147
330
E8
100
AcDbEntity
  8
0
  6
Continuous
 62
     1
100
AcDbLine
 10
15.46139945910207
 20
18.15288813693809
 30
0.0
 11
14.63744436766845
 21
18.12232413329815
 31
0.0
  0
LINE
  5
148
330
E8
100
AcDbEntity
  8
0
  6
Continuous
 62
     1
100
AcDbLine
 10
14.63744436766845
 20
18.12232413329815
 30
0.0
 11
13.81801229064129
 21
18.07147721775385
 31
0.0
  0
LINE
  5
149
330
E8
100
AcDbEntity
  8
0
  6
Continuous
 62
     1
100
AcDbLine
 10
13.81801229064129
 20
18.07147721775385
 30
0.0
 11
13.00534923438661
 21
18.00048675816691
 31
0.0
  0
LINE
  5
14A
330
E8
100
AcDbEntity
  8
0
  6
Continuous
 62
     1
100
AcDbLine
 10
13.00534923438661
 20
18.00048675816691
 30
0.0
 11
12.20168265185364
 21
17.90954733445227
 31
0.0
  0
LINE
  5
14B
330
E8
100
AcDbEntity
  8
0
  6
Continuous
 62
     1
100
AcDbLine
 10
12.20168265185364
 20
17.90954733445227
 30
0.0
 11
11.40921533728331
 21
17.79890820524946
 31
0.0
  0
LINE
  5
14C
330
E8
100
AcDbEntity
  8
0
  6
Continuous
 62
     1
100
AcDbLine
 10
11.40921533728331
 20
17.79890820524946
 30
0.0
 11
10.6301193885013
 21
17.66887262472113
 31
0.0
  0
LINE
  5
14D
330
E8
100
AcDbEntity
  8
0
  6
Continuous
 62
     1
100
AcDbLine
 10
10.6301193885013
 20
17.66887262472113
 30
0.0
 11
9.866530253347975
 21
17.51979701135446
 31
0.0
  0
LINE
  5
14E
330
E8
100
AcDbEntity
  8
0
  6
Continuous
 62
     1
100
AcDbLine
 10
9.866530253347975
 20
17.51979701135446
 30
0.0
 11
9.120540876567503
 21
17.35208997104377
 31
0.0
  0
LINE
  5
14F
330
E8
100
AcDbEntity
  8
0
  6
Continuous
 62
     1
100
AcDbLine
 10
9.120540876567503
 20
17.35208997104377
 30
0.0
 11
8.394195963187286
 21
17.1662111771297
 31
0.0
  0
LINE
  5
150
330
E8
100
AcDbEntity
  8
0
  6
Continuous
 62
     1
100
AcDbLine
 10
8.394195963187286
 20
17.1662111771297
 30
0.0
 11
7.689486374128848
 21
16.96267011046569
 31
0.0
  0
LINE
  5
151
330
E8
100
AcDbEntity
  8
0
  6
Continuous
 62
     1
100
AcDbLine
 10
7.689486374128848
 20
16.96267011046569
 30
0.0
 11
7.008343669390598
 21
16.74202466296805
 31
0.0
  0
LINE
  5
152
330
E8
100
AcDbEntity
  8
0
  6
Continuous
 62
     1
100
AcDbLine
 10
7.008343669390598
 20
16.74202466296805
 30
0.0
 11
6.352634813781407
 21
16.50487960847062
 31
0.0
  0
LINE
  5
153
330
E8
100
AcDbEntity
  8
0
  6
Continuous
 62
     1
100
AcDbLine
 10
6.352634813781407
 20
16.50487960847062
 30
0.0
 11
5.72415705969641
 21
16.25188494508478
 31
0.0
  0
LINE
  5
154
330
E8
100
AcDbEntity
  8
0
  6
Continuous
 62
     1
100
AcDbLine
 10
5.72415705969641
 20
16.25188494508478
 30
0.0
 11
5.124633020974471
 21
15.98373411359711
 31
0.0
  0
LINE
  5
155
330
E8
100
AcDbEntity
  8
0
  6
Continuous
 62
     1
100
AcDbLine
 10
5.124633020974471
 20
15.98373411359711
 30
0.0
 11
4.555705951333749
 21
15.70116209679821
 31
0.0
  0
LINE
  5
156
330
E8
100
AcDbEntity
  8
0
  6
Continuous
 62
     1
100
AcDbLine
 10
4.555705951333749
 20
15.70116209679821
 30
0.0
 11
4.018935240326556
 21
15.40494340494382
 31
0.0
  0
LINE
  5
157
330
E8
100
AcDbEntity
  8
0
  6
Continuous
 62
     1
100
AcDbLine
 10
4.018935240326556
 20
15.40494340494382
 30
0.0
 11
3.515792139160823
 21
15.09588995287953
 31
0.0
  0
LINE
  5
158
330
E8
100
AcDbEntity
  8
0
  6
Continuous
 62
     1
100
AcDbLine
 10
3.515792139160823
 20
15.09588995287953
 30
0.0
 11
3.04765572810382
 21
14.77484883463461
 31
0.0
  0
LINE
  5
159
330
E8
100
AcDbEntity
  8
0
  6
Continuous
 62
     1
100
AcDbLine
 10
3.04765572810382
 20
14.77484883463461
 30
0.0
 11
2.615809136518948
 21
14.44270000159889
 31
0.0
  0
LINE
  5
15A
330
E8
100
AcDbEntity
  8
0
  6
Continuous
 62
     1
100
AcDbLine
 10
2.615809136518948
 20
14.44270000159889
 30
0.0
 11
2.221436025895656
 21
14.10035385063696
 31
0.0
  0
LINE
  5
15B
330
E8
100
AcDbEntity
  8
0
  6
Continuous
 62
     1
100
AcDbLine
 10
2.221436025895656
 20
14.10035385063696
 30
0.0
 11
1.865617345518586
 21
13.7487487287521
 31
0.0
  0
LINE
  5
15C
330
E8
100
AcDbEntity
  8
0
  6
Continuous
 62
     1
100
AcDbLine
 10
1.865617345518586
 20
13.7487487287521
 30
0.0
 11
1.549328369657616
 21
13.38884836114352
 31
0.0
  0
LINE
  5
15D
330
E8
100
AcDbEntity
  8
0
  6
Continuous
 62
     1
100
AcDbLine
 10
1.549328369657616
 20
13.38884836114352
 30
0.0
 11
1.273436024410131
 21
13.02163920970219
 31
0.0
  0
LINE
  5
15E
330
E8
100
AcDbEntity
  8
0
  6
Continuous
 62
     1
100
AcDbLine
 10
1.273436024410131
 20
13.02163920970219
 30
0.0
 11
1.038696511518339
 21
12.64812776918819
 31
0.0
  0
LINE
  5
15F
330
E8
100
AcDbEntity
  8
0
  6
Continuous
 62
     1
100
AcDbLine
 10
1.038696511518339
 20
12.64812776918819
 30
0.0
 11
0.8457532356694912
 21
12.26933780849771
 31
0.0
  0
LINE
  5
160
330
E8
100
AcDbEntity
  8
0
  6
Continuous
 62
     1
100
AcDbLine
 10
0.8457532356694912
 20
12.26933780849771
 30
0.0
 11
0.6951350409720192
 21
11.88630756458355
 31
0.0
  0
LINE
  5
161
330
E8
100
AcDbEntity
  8
0
  6
Continuous
 62
     1
100
AcDbLine
 10
0.6951350409720192
 20
11.88630756458355
 30
0.0
 11
0.5872547614283405
 21
11.50008689671989
 31
0.0
  0
LINE
  5
162
330
E8
100
AcDbEntity
  8
0
  6
Continuous
 62
     1
100
AcDbLine
 10
0.5872547614283405
 20
11.50008689671989
 30
0.0
 11
0.5224080893856637
 21
11.1117344089111
 31
0.0
  0
LINE
  5
163
330
E8
100
AcDbEntity
  8
0
  6
Continuous
 62
     1
100
AcDbLine
 10
0.5224080893856637
 20
11.1117344089111
 30
0.0
 11
0.5007727650647951
 21
10.72231454833349
 31
0.0
  0
ARC
  5
164
330
E8
100
AcDbEntity
  8
0
  6
Continuous
 62
    10
100
AcDbCircle
 10
25.16036435551567
 20
6.426179863451978
 30
0.0
 40
0.6005912475397421
100
AcDbArc
 50
61.06943034573163
 51
142.6647004994766
  0
ARC
  5
165
330
E8
100
AcDbEntity
  8
0
  6
Continuous
 62
    10
100
AcDbCircle
 10
25.16036435551567
 20
6.426179863451978
 30
0.0
 40
0.6005912475397421
100
AcDbArc
 50
61.06943034573163
 51
142.6647004994766
  0
ARC
  5
166
330
E8
100
AcDbEntity
  8
0
  6
Continuous
 62
    10
100
AcDbCircle
 10
25.16036435551567
 20
6.426179863451978
 30
0.0
 40
0.9662162475397422
100
AcDbArc
 50
64.49037964304127
 51
142.9738579058682
  0
ARC
  5
167
330
E8
100
AcDbEntity
  8
0
  6
Continuous
 62
    10
100
AcDbCircle
 10
25.16036435551567
 20
6.426179863451978
 30
0.0
 40
0.9662162475397422
100
AcDbArc
 50
64.49037964304127
 51
142.9738579058682
  0
LINE
  5
168
330
E8
100
AcDbEntity
  8
0
  6
Continuous
 62
    10
100
AcDbLine
 10
8.344629827972568
 20
6.951821258001416
 30
0.0
 11
8.219052249101225
 21
7.298202573987908
 31
0.0
  0
LINE
  5
169
330
E8
100
AcDbEntity
  8
0
  6
Continuous
 62
    10
100
AcDbLine
 10
10.72868907098362
 20
6.354394027778142
 30
0.0
 11
10.60367194117524
 21
6.699229454079557
 31
0.0
  0
ARC
  5
16A
330
E8
100
AcDbEntity
  8
0
  6
Continuous
 62
    10
100
AcDbCircle
 10
10.19059121086664
 20
7.572692760268126
 30
0.0
 40
1.331841247539742
100
AcDbArc
 50
215.9697303766588
 51
293.8300759689964
  0
ARC
  5
16B
330
E8
100
AcDbEntity
  8
0
  6
Continuous
 62
    10
100
AcDbCircle
 10
10.19059121086664
 20
7.572692760268126
 30
0.0
 40
1.331841247539742
100
AcDbArc
 50
215.9697303766588
 51
293.8300759689964
  0
ARC
  5
16C
330
E8
100
AcDbEntity
  8
0
  6
Continuous
 62
    10
100
AcDbCircle
 10
8.635165490082528
 20
6.426179863451978
 30
0.0
 40
0.6005912475397421
100
AcDbArc
 50
37.3352995005234
 51
118.9305696542684
  0
ARC
  5
16D
330
E8
100
AcDbEntity
  8
0
  6
Continuous
 62
    10
100
AcDbCircle
 10
8.635165490082528
 20
6.426179863451978
 30
0.0
 40
0.6005912475397421
100
AcDbArc
 50
37.3352995005234
 51
118.9305696542684
  0
ARC
  5
16E
330
E8
100
AcDbEntity
  8
0
  6
Continuous
 62
    10
100
AcDbCircle
 10
10.19059121086664
 20
7.572692760268126
 30
0.0
 40
0.9662162475397422
100
AcDbArc
 50
215.7621230696957
 51
295.3105355331508
  0
ARC
  5
16F
330
E8
100
AcDbEntity
  8
0
  6
Continuous
 62
    10
100
AcDbCircle
 10
10.19059121086664
 20
7.572692760268126
 30
0.0
 40
0.9662162475397422
100
AcDbArc
 50
215.7621230696957
 51
295.3105355331508
  0
ARC
  5
170
330
E8
100
AcDbEntity
  8
0
  6
Continuous
 62
    10
100
AcDbCircle
 10
8.635165490082528
 20
6.426179863451978
 30
0.0
 40
0.9662162475397422
100
AcDbArc
 50
37.02614209413181
 51
115.5096203569587
  0
ARC
  5
171
330
E8
100
AcDbEntity
  8
0
  6
Continuous
 62
    10
100
AcDbCircle
 10
8.635165490082528
 20
6.426179863451978
 30
0.0
 40
0.9662162475397422
100
AcDbArc
 50
37.02614209413181
 51
115.5096203569587
  0
LINE
  5
172
330
E8
100
AcDbEntity
  8
0
  6
Continuous
 62
    10
100
AcDbLine
 10
23.06684077461458
 20
6.354394027778142
 30
0.0
 11
23.19185790442296
 21
6.699229454079557
 31
0.0
  0
ARC
  5
173
330
E8
100
AcDbEntity
  8
0
  6
Continuous
 62
    10
100
AcDbCircle
 10
23.60493863473155
 20
7.572692760268126
 30
0.0
 40
0.9662162475397422
100
AcDbArc
 50
244.6894644668492
 51
324.2378769303043
  0
ARC
  5
174
330
E8
100
AcDbEntity
  8
0
  6
Continuous
 62
    10
100
AcDbCircle
 10
23.60493863473155
 20
7.572692760268126
 30
0.0
 40
0.9662162475397422
100
AcDbArc
 50
244.6894644668492
 51
324.2378769303043
  0
ARC
  5
175
330
E8
100
AcDbEntity
  8
0
  6
Continuous
 62
    10
100
AcDbCircle
 10
23.60493863473155
 20
7.572692760268126
 30
0.0
 40
1.331841247539742
100
AcDbArc
 50
246.1699240310035
 51
324.0302696233412
  0
ARC
  5
176
330
E8
100
AcDbEntity
  8
0
  6
Continuous
 62
    10
100
AcDbCircle
 10
23.60493863473155
 20
7.572692760268126
 30
0.0
 40
1.331841247539742
100
AcDbArc
 50
246.1699240310035
 51
324.0302696233412
  0
LINE
  5
177
330
E8
100
AcDbEntity
  8
0
  6
Continuous
 62
    10
100
AcDbLine
 10
25.45090001762608
 20
6.951821258001416
 30
0.0
 11
25.57647759649697
 21
7.298202573987908
 31
0.0
  0
ARC
  5
178
330
E8
100
AcDbEntity
  8
0
  6
Continuous
 62
    10
100
AcDbCircle
 10
23.90989063755958
 20
11.01183880385128
 30
0.0
 40
2.4375
100
AcDbArc
 50
289.0460469748608
 51
308.233797137863
  0
ARC
  5
179
330
E8
100
AcDbEntity
  8
0
  6
Continuous
 62
    10
100
AcDbCircle
 10
23.90989063755958
 20
11.01183880385128
 30
0.0
 40
2.4375
100
AcDbArc
 50
289.0460469748608
 51
308.233797137863
  0
LINE
  5
17A
330
E8
100
AcDbEntity
  8
0
  6
Continuous
 62
    10
100
AcDbLine
 10
24.74508619722045
 20
11.88319764078727
 30
0.0
 11
26.93883619722035
 21
11.88319764078727
 31
0.0
  0
LINE
  5
17B
330
E8
100
AcDbEntity
  8
0
  6
Continuous
 62
    10
100
AcDbLine
 10
24.74508619722045
 20
8.470697640787364
 30
0.0
 11
26.20758619722054
 21
8.470697640787364
 31
0.0
  0
LINE
  5
17C
330
E8
100
AcDbEntity
  8
0
  6
Continuous
 62
    10
100
AcDbLine
 10
26.60582654746875
 20
10.0327566472219
 30
0.0
 11
25.12480269384858
 21
11.41504557726779
 31
0.0
  0
LINE
  5
17D
330
E8
100
AcDbEntity
  8
0
  6
Continuous
 62
    10
100
AcDbLine
 10
11.16336698075409
 20
10.0327566472219
 30
0.0
 11
9.682343127133919
 21
11.41504557726779
 31
0.0
  0
LINE
  5
17E
330
E8
100
AcDbEntity
  8
0
  6
Continuous
 62
    10
100
AcDbLine
 10
11.89947883930543
 20
10.61272298221996
 30
0.0
 11
11.06804199692832
 21
11.38873070177209
 31
0.0
  0
LINE
  5
17F
330
E8
100
AcDbEntity
  8
0
  6
Continuous
 62
    10
100
AcDbLine
 10
11.16336698075409
 20
10.0327566472219
 30
0.0
 11
9.975931186200143
 21
9.097202114562094
 31
0.0
  0
LINE
  5
180
330
E8
100
AcDbEntity
  8
0
  6
Continuous
 62
    10
100
AcDbLine
 10
11.39774238196313
 20
9.81400627276065
 30
0.0
 11
10.3252275318462
 21
8.968995423353533
 31
0.0
  0
ARC
  5
181
330
E8
100
AcDbEntity
  8
0
  6
Continuous
 62
    10
100
AcDbCircle
 10
11.15119953369074
 20
11.47782806258959
 30
0.0
 40
0.121875
100
AcDbArc
 50
96.32369450860737
 51
226.974934010882
  0
ARC
  5
182
330
E8
100
AcDbEntity
  8
0
  6
Continuous
 62
    10
100
AcDbCircle
 10
11.15119953369074
 20
11.47782806258959
 30
0.0
 40
0.121875
100
AcDbArc
 50
96.32369450860737
 51
226.974934010882
  0
LINE
  5
183
330
E8
100
AcDbEntity
  8
0
  6
Continuous
 62
    10
100
AcDbLine
 10
9.302626630505785
 20
11.88319764078727
 30
0.0
 11
11.49637663050569
 21
11.88319764078727
 31
0.0
  0
ARC
  5
184
330
E8
100
AcDbEntity
  8
0
  6
Continuous
 62
    10
100
AcDbCircle
 10
10.40065253761375
 20
8.873263588889074
 30
0.0
 40
0.121875
100
AcDbArc
 50
128.2337971378629
 51
264.3948769589975
  0
ARC
  5
185
330
E8
100
AcDbEntity
  8
0
  6
Continuous
 62
    10
100
AcDbCircle
 10
10.40065253761375
 20
8.873263588889074
 30
0.0
 40
0.121875
100
AcDbArc
 50
128.2337971378629
 51
264.3948769589975
  0
LINE
  5
186
330
E8
100
AcDbEntity
  8
0
  6
Continuous
 62
    10
100
AcDbLine
 10
10.77703039168117
 20
8.713864916282489
 30
0.0
 11
10.38874877643892
 21
8.751971313393767
 31
0.0
  0
ARC
  5
187
330
E8
100
AcDbEntity
  8
0
  6
Continuous
 62
    10
100
AcDbCircle
 10
10.76512663050588
 20
8.592572640787182
 30
0.0
 40
0.121875
100
AcDbArc
 50
270.0
 51
84.3948769589973
  0
ARC
  5
188
330
E8
100
AcDbEntity
  8
0
  6
Continuous
 62
    10
100
AcDbCircle
 10
10.76512663050588
 20
8.592572640787182
 30
0.0
 40
0.121875
100
AcDbArc
 50
270.0
 51
84.3948769589973
  0
ARC
  5
189
330
E8
100
AcDbEntity
  8
0
  6
Continuous
 62
    10
100
AcDbCircle
 10
8.46743107084447
 20
11.01183880385128
 30
0.0
 40
2.4375
100
AcDbArc
 50
289.0460469748608
 51
308.233797137863
  0
ARC
  5
18A
330
E8
100
AcDbEntity
  8
0
  6
Continuous
 62
    10
100
AcDbCircle
 10
8.46743107084447
 20
11.01183880385128
 30
0.0
 40
2.4375
100
AcDbArc
 50
289.0460469748608
 51
308.233797137863
  0
ARC
  5
18B
330
E8
100
AcDbEntity
  8
0
  6
Continuous
 62
    10
100
AcDbCircle
 10
9.302626630505785
 20
8.592572640787182
 30
0.0
 40
0.121875
100
AcDbArc
 50
109.0460469748607
 51
270.0
  0
ARC
  5
18C
330
E8
100
AcDbEntity
  8
0
  6
Continuous
 62
    10
100
AcDbCircle
 10
9.302626630505785
 20
8.592572640787182
 30
0.0
 40
0.121875
100
AcDbArc
 50
109.0460469748607
 51
270.0
  0
ARC
  5
18D
330
E8
100
AcDbEntity
  8
0
  6
Continuous
 62
    10
100
AcDbCircle
 10
9.017082833032674
 20
10.70226669073094
 30
0.0
 40
0.9750000000000001
100
AcDbArc
 50
46.97493401088205
 51
74.91066274878528
  0
ARC
  5
18E
330
E8
100
AcDbEntity
  8
0
  6
Continuous
 62
    10
100
AcDbCircle
 10
9.017082833032674
 20
10.70226669073094
 30
0.0
 40
0.9750000000000001
100
AcDbArc
 50
46.97493401088205
 51
74.91066274878528
  0
ARC
  5
18F
330
E8
100
AcDbEntity
  8
0
  6
Continuous
 62
    10
100
AcDbCircle
 10
9.302626630505785
 20
11.761322640787
 30
0.0
 40
0.121875
100
AcDbArc
 50
90.0
 51
254.9106627487849
  0
ARC
  5
190
330
E8
100
AcDbEntity
  8
0
  6
Continuous
 62
    10
100
AcDbCircle
 10
9.302626630505785
 20
11.761322640787
 30
0.0
 40
0.121875
100
AcDbArc
 50
90.0
 51
254.9106627487849
  0
LINE
  5
191
330
E8
100
AcDbEntity
  8
0
  6
Continuous
 62
    10
100
AcDbLine
 10
9.302626630505785
 20
8.470697640787364
 30
0.0
 11
10.76512663050588
 21
8.470697640787364
 31
0.0
  0
ARC
  5
192
330
E8
100
AcDbEntity
  8
0
  6
Continuous
 62
    10
100
AcDbCircle
 10
7.415168179766425
 20
10.542572640787
 30
0.0
 40
1.70625
100
AcDbArc
 50
270.0
 51
332.181860715346
  0
ARC
  5
193
330
E8
100
AcDbEntity
  8
0
  6
Continuous
 62
    10
100
AcDbCircle
 10
7.415168179766425
 20
10.542572640787
 30
0.0
 40
1.70625
100
AcDbArc
 50
270.0
 51
332.181860715346
  0
ARC
  5
194
330
E8
100
AcDbEntity
  8
0
  6
Continuous
 62
    10
100
AcDbCircle
 10
9.032022765064795
 20
9.689447640787364
 30
0.0
 40
0.121875
100
AcDbArc
 50
0.0
 51
152.1818607153462
  0
ARC
  5
195
330
E8
100
AcDbEntity
  8
0
  6
Continuous
 62
    10
100
AcDbCircle
 10
9.032022765064795
 20
9.689447640787364
 30
0.0
 40
0.121875
100
AcDbArc
 50
0.0
 51
152.1818607153462
  0
ARC
  5
196
330
E8
100
AcDbEntity
  8
0
  6
Continuous
 62
    10
100
AcDbCircle
 10
7.935147765064613
 20
9.689447640787364
 30
0.0
 40
1.21875
100
AcDbArc
 50
270.0
 51
0.0
  0
ARC
  5
197
330
E8
100
AcDbEntity
  8
0
  6
Continuous
 62
    10
100
AcDbCircle
 10
7.935147765064613
 20
9.689447640787364
 30
0.0
 40
1.21875
100
AcDbArc
 50
270.0
 51
0.0
  0
ARC
  5
198
330
E8
100
AcDbEntity
  8
0
  6
Continuous
 62
    10
100
AcDbCircle
 10
6.107022765064613
 20
9.080072640787364
 30
0.0
 40
0.24375
100
AcDbArc
 50
180.0
 51
270.0
  0
ARC
  5
199
330
E8
100
AcDbEntity
  8
0
  6
Continuous
 62
    10
100
AcDbCircle
 10
6.107022765064613
 20
9.080072640787364
 30
0.0
 40
0.24375
100
AcDbArc
 50
180.0
 51
270.0
  0
ARC
  5
19A
330
E8
100
AcDbEntity
  8
0
  6
Continuous
 62
    10
100
AcDbCircle
 10
7.088970078795484
 20
10.23429550323857
 30
0.0
 40
0.7714321343087712
100
AcDbArc
 50
1.983446432504158
 51
90.50527446566518
  0
ARC
  5
19B
330
E8
100
AcDbEntity
  8
0
  6
Continuous
 62
    10
100
AcDbCircle
 10
7.088970078795484
 20
10.23429550323857
 30
0.0
 40
0.7714321343087712
100
AcDbArc
 50
1.983446432504158
 51
90.50527446566518
  0
ARC
  5
19C
330
E8
100
AcDbEntity
  8
0
  6
Continuous
 62
    10
100
AcDbCircle
 10
7.981794399208667
 20
10.25875330547382
 30
0.0
 40
0.121875
100
AcDbArc
 50
178.945910736507
 51
0.0
  0
ARC
  5
19D
330
E8
100
AcDbEntity
  8
0
  6
Continuous
 62
    10
100
AcDbCircle
 10
7.981794399208667
 20
10.25875330547382
 30
0.0
 40
0.121875
100
AcDbArc
 50
178.945910736507
 51
0.0
  0
ARC
  5
19E
330
E8
100
AcDbEntity
  8
0
  6
Continuous
 62
    10
100
AcDbCircle
 10
7.099259390339995
 20
12.12694764078736
 30
0.0
 40
0.7312500000000002
100
AcDbArc
 50
270.0
 51
348.4630409671844
  0
ARC
  5
19F
330
E8
100
AcDbEntity
  8
0
  6
Continuous
 62
    10
100
AcDbCircle
 10
7.099259390339995
 20
12.12694764078736
 30
0.0
 40
0.7312500000000002
100
AcDbArc
 50
270.0
 51
348.4630409671844
  0
ARC
  5
1A0
330
E8
100
AcDbEntity
  8
0
  6
Continuous
 62
    10
100
AcDbCircle
 10
7.935147765064613
 20
11.95632264078716
 30
0.0
 40
0.121875
100
AcDbArc
 50
0.0
 51
168.4630409671844
  0
ARC
  5
1A1
330
E8
100
AcDbEntity
  8
0
  6
Continuous
 62
    10
100
AcDbCircle
 10
7.935147765064613
 20
11.95632264078716
 30
0.0
 40
0.121875
100
AcDbArc
 50
0.0
 51
168.4630409671844
  0
LINE
  5
1A2
330
E8
100
AcDbEntity
  8
0
  6
Continuous
 62
    10
100
AcDbLine
 10
8.057022765064886
 20
11.95632264078716
 30
0.0
 11
8.103669399208485
 21
10.25875330547382
 31
0.0
  0
ARC
  5
1A3
330
E8
100
AcDbEntity
  8
0
  6
Continuous
 62
    10
100
AcDbCircle
 10
5.985147765064795
 20
10.88382264078695
 30
0.0
 40
0.121875
100
AcDbArc
 50
90.00000000000001
 51
180.0
  0
ARC
  5
1A4
330
E8
100
AcDbEntity
  8
0
  6
Continuous
 62
    10
100
AcDbCircle
 10
5.985147765064795
 20
10.88382264078695
 30
0.0
 40
0.121875
100
AcDbArc
 50
90.00000000000001
 51
180.0
  0
LINE
  5
1A5
330
E8
100
AcDbEntity
  8
0
  6
Continuous
 62
    10
100
AcDbLine
 10
5.863272765064977
 20
10.88382264078695
 30
0.0
 11
5.863272765064977
 21
9.080072640787364
 31
0.0
  0
ARC
  5
1A6
330
E8
100
AcDbEntity
  8
0
  6
Continuous
 62
    10
100
AcDbCircle
 10
5.985147765064795
 20
11.51757264078736
 30
0.0
 40
0.121875
100
AcDbArc
 50
180.0
 51
270.0
  0
ARC
  5
1A7
330
E8
100
AcDbEntity
  8
0
  6
Continuous
 62
    10
100
AcDbCircle
 10
5.985147765064795
 20
11.51757264078736
 30
0.0
 40
0.121875
100
AcDbArc
 50
180.0
 51
270.0
  0
LINE
  5
1A8
330
E8
100
AcDbEntity
  8
0
  6
Continuous
 62
    10
100
AcDbLine
 10
5.985147765064795
 20
11.00569764078722
 30
0.0
 11
7.082167136056142
 21
11.00569764078722
 31
0.0
  0
LINE
  5
1A9
330
E8
100
AcDbEntity
  8
0
  6
Continuous
 62
    10
100
AcDbLine
 10
5.985147765064795
 20
11.39569764078709
 30
0.0
 11
7.099259390339995
 21
11.39569764078709
 31
0.0
  0
ARC
  5
1AA
330
E8
100
AcDbEntity
  8
0
  6
Continuous
 62
    10
100
AcDbCircle
 10
6.009522765064759
 20
13.2227698058345
 30
0.0
 40
0.14625
100
AcDbArc
 50
100.0375301237075
 51
180.0
  0
ARC
  5
1AB
330
E8
100
AcDbEntity
  8
0
  6
Continuous
 62
    10
100
AcDbCircle
 10
6.009522765064759
 20
13.2227698058345
 30
0.0
 40
0.14625
100
AcDbArc
 50
100.0375301237075
 51
180.0
  0
ARC
  5
1AC
330
E8
100
AcDbEntity
  8
0
  6
Continuous
 62
    10
100
AcDbCircle
 10
8.184135999532174
 20
13.13396554780542
 30
0.0
 40
0.24375
100
AcDbArc
 50
11.91554144336952
 51
80.34504162044189
  0
ARC
  5
1AD
330
E8
100
AcDbEntity
  8
0
  6
Continuous
 62
    10
100
AcDbCircle
 10
8.184135999532174
 20
13.13396554780542
 30
0.0
 40
0.24375
100
AcDbArc
 50
11.91554144336952
 51
80.34504162044189
  0
ARC
  5
1AE
330
E8
100
AcDbEntity
  8
0
  6
Continuous
 62
    10
100
AcDbCircle
 10
7.126077885226351
 20
6.914636051910691
 30
0.0
 40
6.55243816409218
100
AcDbArc
 50
80.34504162044209
 51
100.0375301237077
  0
ARC
  5
1AF
330
E8
100
AcDbEntity
  8
0
  6
Continuous
 62
    10
100
AcDbCircle
 10
7.126077885226351
 20
6.914636051910691
 30
0.0
 40
6.55243816409218
100
AcDbArc
 50
80.34504162044209
 51
100.0375301237077
  0
LINE
  5
1B0
330
E8
100
AcDbEntity
  8
0
  6
Continuous
 62
    10
100
AcDbLine
 10
8.607369430908676
 20
12.57410501163434
 30
0.0
 11
8.422633922268489
 21
13.18429251225501
 31
0.0
  0
ARC
  5
1B1
330
E8
100
AcDbEntity
  8
0
  6
Continuous
 62
    10
100
AcDbCircle
 10
8.722373726037205
 20
12.61444764078709
 30
0.0
 40
0.121875
100
AcDbArc
 50
184.5006017563728
 51
0.0
  0
ARC
  5
1B2
330
E8
100
AcDbEntity
  8
0
  6
Continuous
 62
    10
100
AcDbCircle
 10
8.722373726037205
 20
12.61444764078709
 30
0.0
 40
0.121875
100
AcDbArc
 50
184.5006017563728
 51
0.0
  0
ARC
  5
1B3
330
E8
100
AcDbEntity
  8
0
  6
Continuous
 62
    10
100
AcDbCircle
 10
8.666397765064886
 20
13.71132264078727
 30
0.0
 40
0.121875
100
AcDbArc
 50
0.0
 51
90.0
  0
ARC
  5
1B4
330
E8
100
AcDbEntity
  8
0
  6
Continuous
 62
    10
100
AcDbCircle
 10
8.666397765064886
 20
13.71132264078727
 30
0.0
 40
0.121875
100
AcDbArc
 50
0.0
 51
90.0
  0
LINE
  5
1B5
330
E8
100
AcDbEntity
  8
0
  6
Continuous
 62
    10
100
AcDbLine
 10
8.788272765064704
 20
13.71132264078727
 30
0.0
 11
8.844248726037478
 21
12.61444764078709
 31
0.0
  0
ARC
  5
1B6
330
E8
100
AcDbEntity
  8
0
  6
Continuous
 62
    10
100
AcDbCircle
 10
4.157022765064795
 20
13.0441705585244
 30
0.0
 40
0.4875
100
AcDbArc
 50
0.0
 51
81.94974620412304
  0
ARC
  5
1B7
330
E8
100
AcDbEntity
  8
0
  6
Continuous
 62
    10
100
AcDbCircle
 10
4.157022765064795
 20
13.0441705585244
 30
0.0
 40
0.4875
100
AcDbArc
 50
0.0
 51
81.94974620412304
  0
ARC
  5
1B8
330
E8
100
AcDbEntity
  8
0
  6
Continuous
 62
    10
100
AcDbCircle
 10
4.157022765064795
 20
9.259724723050056
 30
0.0
 40
0.4875
100
AcDbArc
 50
278.0502537958771
 51
0.0
  0
ARC
  5
1B9
330
E8
100
AcDbEntity
  8
0
  6
Continuous
 62
    10
100
AcDbCircle
 10
4.157022765064795
 20
9.259724723050056
 30
0.0
 40
0.4875
100
AcDbArc
 50
278.0502537958771
 51
0.0
  0
LINE
  5
1BA
330
E8
100
AcDbEntity
  8
0
  6
Continuous
 62
    10
100
AcDbLine
 10
4.225293047841461
 20
8.777028733332315
 30
0.0
 11
3.774330194370378
 21
8.71324663821673
 31
0.0
  0
LINE
  5
1BB
330
E8
100
AcDbEntity
  8
0
  6
Continuous
 62
    10
100
AcDbLine
 10
4.225293047841461
 20
13.52686654824214
 30
0.0
 11
3.774330194370378
 21
13.59064864335772
 31
0.0
  0
ARC
  5
1BC
330
E8
100
AcDbEntity
  8
0
  6
Continuous
 62
    10
100
AcDbCircle
 10
3.791397765064886
 20
8.592572640787182
 30
0.0
 40
0.121875
100
AcDbArc
 50
98.0502537958774
 51
270.0
  0
ARC
  5
1BD
330
E8
100
AcDbEntity
  8
0
  6
Continuous
 62
    10
100
AcDbCircle
 10
3.791397765064886
 20
8.592572640787182
 30
0.0
 40
0.121875
100
AcDbArc
 50
98.0502537958774
 51
270.0
  0
ARC
  5
1BE
330
E8
100
AcDbEntity
  8
0
  6
Continuous
 62
    10
100
AcDbCircle
 10
3.791397765064886
 20
13.71132264078727
 30
0.0
 40
0.121875
100
AcDbArc
 50
90.0
 51
261.9497462041234
  0
ARC
  5
1BF
330
E8
100
AcDbEntity
  8
0
  6
Continuous
 62
    10
100
AcDbCircle
 10
3.791397765064886
 20
13.71132264078727
 30
0.0
 40
0.121875
100
AcDbArc
 50
90.0
 51
261.9497462041234
  0
LINE
  5
1C0
330
E8
100
AcDbEntity
  8
0
  6
Continuous
 62
    10
100
AcDbLine
 10
6.107022765064613
 20
8.836322640787273
 30
0.0
 11
7.415168179766425
 21
8.836322640787273
 31
0.0
  0
LINE
  5
1C1
330
E8
100
AcDbEntity
  8
0
  6
Continuous
 62
    10
100
AcDbLine
 10
5.863272765064977
 20
13.2227698058345
 30
0.0
 11
5.863272765064977
 21
11.51757264078736
 31
0.0
  0
LINE
  5
1C2
330
E8
100
AcDbEntity
  8
0
  6
Continuous
 62
    10
100
AcDbLine
 10
3.791397765064886
 20
13.83319764078709
 30
0.0
 11
8.666397765064886
 21
13.83319764078709
 31
0.0
  0
LINE
  5
1C3
330
E8
100
AcDbEntity
  8
0
  6
Continuous
 62
    10
100
AcDbLine
 10
3.791397765064886
 20
8.470697640787364
 30
0.0
 11
7.935147765064613
 21
8.470697640787364
 31
0.0
  0
LINE
  5
1C4
330
E8
100
AcDbEntity
  8
0
  6
Continuous
 62
    10
100
AcDbLine
 10
4.644522765064977
 20
13.0441705585244
 30
0.0
 11
4.644522765064977
 21
9.259724723050056
 31
0.0
  0
ARC
  5
1C5
330
E8
100
AcDbEntity
  8
0
  6
Continuous
 62
    10
100
AcDbCircle
 10
21.55461477931547
 20
10.66896896143993
 30
0.0
 40
0.121875
100
AcDbArc
 50
184.9902678055532
 51
270.0
  0
ARC
  5
1C6
330
E8
100
AcDbEntity
  8
0
  6
Continuous
 62
    10
100
AcDbCircle
 10
21.55461477931547
 20
10.66896896143993
 30
0.0
 40
0.121875
100
AcDbArc
 50
184.9902678055532
 51
270.0
  0
ARC
  5
1C7
330
E8
100
AcDbEntity
  8
0
  6
Continuous
 62
    10
100
AcDbCircle
 10
23.07270073149337
 20
10.66896896143993
 30
0.0
 40
0.121875
100
AcDbArc
 50
270.0
 51
355.0097321944468
  0
ARC
  5
1C8
330
E8
100
AcDbEntity
  8
0
  6
Continuous
 62
    10
100
AcDbCircle
 10
23.07270073149337
 20
10.66896896143993
 30
0.0
 40
0.121875
100
AcDbArc
 50
270.0
 51
355.0097321944468
  0
ARC
  5
1C9
330
E8
100
AcDbEntity
  8
0
  6
Continuous
 62
    10
100
AcDbCircle
 10
22.31365775540442
 20
10.73524670188311
 30
0.0
 40
0.8838060850910612
100
AcDbArc
 50
355.0097321944468
 51
184.9902678055533
  0
ARC
  5
1CA
330
E8
100
AcDbEntity
  8
0
  6
Continuous
 62
    10
100
AcDbCircle
 10
22.31365775540442
 20
10.73524670188311
 30
0.0
 40
0.8838060850910612
100
AcDbArc
 50
355.0097321944468
 51
184.9902678055533
  0
ARC
  5
1CB
330
E8
100
AcDbEntity
  8
0
  6
Continuous
 62
    10
100
AcDbCircle
 10
24.74508619722045
 20
11.761322640787
 30
0.0
 40
0.121875
100
AcDbArc
 50
90.0
 51
254.9106627487849
  0
ARC
  5
1CC
330
E8
100
AcDbEntity
  8
0
  6
Continuous
 62
    10
100
AcDbCircle
 10
24.74508619722045
 20
11.761322640787
 30
0.0
 40
0.121875
100
AcDbArc
 50
90.0
 51
254.9106627487849
  0
ARC
  5
1CD
330
E8
100
AcDbEntity
  8
0
  6
Continuous
 62
    10
100
AcDbCircle
 10
24.45954239974733
 20
10.70226669073094
 30
0.0
 40
0.9750000000000001
100
AcDbArc
 50
46.97493401088205
 51
74.91066274878528
  0
ARC
  5
1CE
330
E8
100
AcDbEntity
  8
0
  6
Continuous
 62
    10
100
AcDbCircle
 10
24.45954239974733
 20
10.70226669073094
 30
0.0
 40
0.9750000000000001
100
AcDbArc
 50
46.97493401088205
 51
74.91066274878528
  0
ARC
  5
1CF
330
E8
100
AcDbEntity
  8
0
  6
Continuous
 62
    10
100
AcDbCircle
 10
24.74508619722045
 20
8.592572640787182
 30
0.0
 40
0.121875
100
AcDbArc
 50
109.0460469748607
 51
270.0
  0
ARC
  5
1D0
330
E8
100
AcDbEntity
  8
0
  6
Continuous
 62
    10
100
AcDbCircle
 10
24.74508619722045
 20
8.592572640787182
 30
0.0
 40
0.121875
100
AcDbArc
 50
109.0460469748607
 51
270.0
  0
LINE
  5
1D1
330
E8
100
AcDbEntity
  8
0
  6
Continuous
 62
    10
100
AcDbLine
 10
14.84074997534324
 20
8.470697640787364
 30
0.0
 11
17.02494125319006
 21
8.470697640787364
 31
0.0
  0
LINE
  5
1D2
330
E8
100
AcDbEntity
  8
0
  6
Continuous
 62
    10
100
AcDbLine
 10
22.59763057695753
 20
8.470697640787364
 30
0.0
 11
22.41115775540428
 21
8.47243786311077
 31
0.0
  0
ARC
  5
1D3
330
E8
100
AcDbEntity
  8
0
  6
Continuous
 62
    10
100
AcDbCircle
 10
24.22861154039109
 20
10.34757264078729
 30
0.0
 40
0.121875
100
AcDbArc
 50
270.000000000013
 51
7.150315949103082
  0
ARC
  5
1D4
330
E8
100
AcDbEntity
  8
0
  6
Continuous
 62
    10
100
AcDbCircle
 10
24.22861154039109
 20
10.34757264078729
 30
0.0
 40
0.121875
100
AcDbArc
 50
270.000000000013
 51
7.150315949103082
  0
ARC
  5
1D5
330
E8
100
AcDbEntity
  8
0
  6
Continuous
 62
    10
100
AcDbCircle
 10
21.55335381605872
 20
10.1038226407872
 30
0.0
 40
0.121875
100
AcDbArc
 50
90.0
 51
181.8543561911767
  0
ARC
  5
1D6
330
E8
100
AcDbEntity
  8
0
  6
Continuous
 62
    10
100
AcDbCircle
 10
21.55335381605872
 20
10.1038226407872
 30
0.0
 40
0.121875
100
AcDbArc
 50
90.0
 51
181.8543561911767
  0
ARC
  5
1D7
330
E8
100
AcDbEntity
  8
0
  6
Continuous
 62
    10
100
AcDbCircle
 10
22.54222743913104
 20
12.94679563860558
 30
0.0
 40
3.923361595779913
100
AcDbArc
 50
270.017156252833
 51
294.6841464046809
  0
ARC
  5
1D8
330
E8
100
AcDbEntity
  8
0
  6
Continuous
 62
    10
100
AcDbCircle
 10
22.54222743913104
 20
12.94679563860558
 30
0.0
 40
3.923361595779913
100
AcDbArc
 50
270.017156252833
 51
294.6841464046809
  0
ARC
  5
1D9
330
E8
100
AcDbEntity
  8
0
  6
Continuous
 62
    10
100
AcDbCircle
 10
22.54340222343561
 20
10.13587637484665
 30
0.0
 40
1.112442156136357
100
AcDbArc
 50
181.8543561911769
 51
270.4458215539496
  0
ARC
  5
1DA
330
E8
100
AcDbEntity
  8
0
  6
Continuous
 62
    10
100
AcDbCircle
 10
22.54340222343561
 20
10.13587637484665
 30
0.0
 40
1.112442156136357
100
AcDbArc
 50
181.8543561911769
 51
270.4458215539496
  0
ARC
  5
1DB
330
E8
100
AcDbEntity
  8
0
  6
Continuous
 62
    10
100
AcDbCircle
 10
22.59763057695753
 20
10.90819764078736
 30
0.0
 40
2.4375
100
AcDbArc
 50
270.0
 51
315.1491919008036
  0
ARC
  5
1DC
330
E8
100
AcDbEntity
  8
0
  6
Continuous
 62
    10
100
AcDbCircle
 10
22.59763057695753
 20
10.90819764078736
 30
0.0
 40
2.4375
100
AcDbArc
 50
270.0
 51
315.1491919008036
  0
ARC
  5
1DD
330
E8
100
AcDbEntity
  8
0
  6
Continuous
 62
    10
100
AcDbCircle
 10
24.23928275540428
 20
9.275072640787073
 30
0.0
 40
0.121875
100
AcDbArc
 50
315.1491919008037
 51
118.7379385920353
  0
ARC
  5
1DE
330
E8
100
AcDbEntity
  8
0
  6
Continuous
 62
    10
100
AcDbCircle
 10
24.23928275540428
 20
9.275072640787073
 30
0.0
 40
0.121875
100
AcDbArc
 50
315.1491919008037
 51
118.7379385920353
  0
LINE
  5
1DF
330
E8
100
AcDbEntity
  8
0
  6
Continuous
 62
    10
100
AcDbLine
 10
21.55461477931547
 20
10.54709396143966
 30
0.0
 11
23.07270073149337
 21
10.54709396143966
 31
0.0
  0
LINE
  5
1E0
330
E8
100
AcDbEntity
  8
0
  6
Continuous
 62
    10
100
AcDbLine
 10
21.55335381605872
 20
10.22569764078702
 30
0.0
 11
24.22861154039109
 21
10.22569764078702
 31
0.0
  0
LINE
  5
1E1
330
E8
100
AcDbEntity
  8
0
  6
Continuous
 62
    10
100
AcDbLine
 10
24.34953871986116
 20
10.36274277230763
 30
0.0
 11
24.33575801512305
 21
10.45116375668425
 31
0.0
  0
LINE
  5
1E2
330
E8
100
AcDbEntity
  8
0
  6
Continuous
 62
    10
100
AcDbLine
 10
24.33575801512305
 20
10.45116375668425
 30
0.0
 11
24.31670211485041
 21
10.53883313374757
 31
0.0
  0
LINE
  5
1E3
330
E8
100
AcDbEntity
  8
0
  6
Continuous
 62
    10
100
AcDbLine
 10
24.31670211485041
 20
10.53883313374757
 30
0.0
 11
24.29242324994155
 21
10.6255106078292
 31
0.0
  0
LINE
  5
1E4
330
E8
100
AcDbEntity
  8
0
  6
Continuous
 62
    10
100
AcDbLine
 10
24.29242324994155
 20
10.6255106078292
 30
0.0
 11
24.26298796707695
 21
10.71095860199733
 31
0.0
  0
LINE
  5
1E5
330
E8
100
AcDbEntity
  8
0
  6
Continuous
 62
    10
100
AcDbLine
 10
24.26298796707695
 20
10.71095860199733
 30
0.0
 11
24.22847694632108
 21
10.79494290923952
 31
0.0
  0
LINE
  5
1E6
330
E8
100
AcDbEntity
  8
0
  6
Continuous
 62
    10
100
AcDbLine
 10
24.22847694632108
 20
10.79494290923952
 30
0.0
 11
24.18898477998371
 21
10.87723333440675
 31
0.0
  0
LINE
  5
1E7
330
E8
100
AcDbEntity
  8
0
  6
Continuous
 62
    10
100
AcDbLine
 10
24.18898477998371
 20
10.87723333440675
 30
0.0
 11
24.14461971334711
 21
10.95760432516448
 31
0.0
  0
LINE
  5
1E8
330
E8
100
AcDbEntity
  8
0
  6
Continuous
 62
    10
100
AcDbLine
 10
24.14461971334711
 20
10.95760432516448
 30
0.0
 11
24.09550334797521
 21
11.03583559021303
 31
0.0
  0
LINE
  5
1E9
330
E8
100
AcDbEntity
  8
0
  6
Continuous
 62
    10
100
AcDbLine
 10
24.09550334797521
 20
11.03583559021303
 30
0.0
 11
24.04177030841154
 21
11.11171270309291
 31
0.0
  0
LINE
  5
1EA
330
E8
100
AcDbEntity
  8
0
  6
Continuous
 62
    10
100
AcDbLine
 10
24.04177030841154
 20
11.11171270309291
 30
0.0
 11
23.98356787318224
 21
11.18502768991169
 31
0.0
  0
LINE
  5
1EB
330
E8
100
AcDbEntity
  8
0
  6
Continuous
 62
    10
100
AcDbLine
 10
23.98356787318224
 20
11.18502768991169
 30
0.0
 11
23.92105557111725
 21
11.25557959938618
 31
0.0
  0
LINE
  5
1EC
330
E8
100
AcDbEntity
  8
0
  6
Continuous
 62
    10
100
AcDbLine
 10
23.92105557111725
 20
11.25557959938618
 30
0.0
 11
23.85440474409123
 21
11.32317505363739
 31
0.0
  0
LINE
  5
1ED
330
E8
100
AcDbEntity
  8
0
  6
Continuous
 62
    10
100
AcDbLine
 10
23.85440474409123
 20
11.32317505363739
 30
0.0
 11
23.78379807738773
 21
11.38762877822313
 31
0.0
  0
LINE
  5
1EE
330
E8
100
AcDbEntity
  8
0
  6
Continuous
 62
    10
100
AcDbLine
 10
23.78379807738773
 20
11.38762877822313
 30
0.0
 11
23.70942909897283
 21
11.44876410996443
 31
0.0
  0
LINE
  5
1EF
330
E8
100
AcDbEntity
  8
0
  6
Continuous
 62
    10
100
AcDbLine
 10
23.70942909897283
 20
11.44876410996443
 30
0.0
 11
23.63150164904735
 21
11.50641348116682
 31
0.0
  0
LINE
  5
1F0
330
E8
100
AcDbEntity
  8
0
  6
Continuous
 62
    10
100
AcDbLine
 10
23.63150164904735
 20
11.50641348116682
 30
0.0
 11
23.55022932133423
 21
11.56041887891064
 31
0.0
  0
LINE
  5
1F1
330
E8
100
AcDbEntity
  8
0
  6
Continuous
 62
    10
100
AcDbLine
 10
23.55022932133423
 20
11.56041887891064
 30
0.0
 11
23.46583487763453
 21
11.6106322781547
 31
0.0
  0
LINE
  5
1F2
330
E8
100
AcDbEntity
  8
0
  6
Continuous
 62
    10
100
AcDbLine
 10
23.46583487763453
 20
11.6106322781547
 30
0.0
 11
23.37854963725275
 21
11.65691604746183
 31
0.0
  0
LINE
  5
1F3
330
E8
100
AcDbEntity
  8
0
  6
Continuous
 62
    10
100
AcDbLine
 10
23.37854963725275
 20
11.65691604746183
 30
0.0
 11
23.28861284296525
 21
11.69914332623779
 31
0.0
  0
LINE
  5
1F4
330
E8
100
AcDbEntity
  8
0
  6
Continuous
 62
    10
100
AcDbLine
 10
23.28861284296525
 20
11.69914332623779
 30
0.0
 11
23.19627100527421
 21
11.73719837244647
 31
0.0
  0
LINE
  5
1F5
330
E8
100
AcDbEntity
  8
0
  6
Continuous
 62
    10
100
AcDbLine
 10
23.19627100527421
 20
11.73719837244647
 30
0.0
 11
23.1017772267376
 21
11.77097687985128
 31
0.0
  0
LINE
  5
1F6
330
E8
100
AcDbEntity
  8
0
  6
Continuous
 62
    10
100
AcDbLine
 10
23.1017772267376
 20
11.77097687985128
 30
0.0
 11
23.00539050823434
 21
11.80038626391155
 31
0.0
  0
LINE
  5
1F7
330
E8
100
AcDbEntity
  8
0
  6
Continuous
 62
    10
100
AcDbLine
 10
23.00539050823434
 20
11.80038626391155
 30
0.0
 11
22.90737503906055
 21
11.82534591554935
 31
0.0
  0
LINE
  5
1F8
330
E8
100
AcDbEntity
  8
0
  6
Continuous
 62
    10
100
AcDbLine
 10
22.90737503906055
 20
11.82534591554935
 30
0.0
 11
22.80799947280346
 21
11.84578742209482
 31
0.0
  0
LINE
  5
1F9
330
E8
100
AcDbEntity
  8
0
  6
Continuous
 62
    10
100
AcDbLine
 10
22.80799947280346
 20
11.84578742209482
 30
0.0
 11
22.70753619098312
 21
11.86165475479987
 31
0.0
  0
LINE
  5
1FA
330
E8
100
AcDbEntity
  8
0
  6
Continuous
 62
    10
100
AcDbLine
 10
22.70753619098312
 20
11.86165475479987
 30
0.0
 11
22.60626055647234
 21
11.87290442240732
 31
0.0
  0
LINE
  5
1FB
330
E8
100
AcDbEntity
  8
0
  6
Continuous
 62
    10
100
AcDbLine
 10
22.60626055647234
 20
11.87290442240732
 30
0.0
 11
22.50445015874473
 21
11.87950559036148
 31
0.0
  0
LINE
  5
1FC
330
E8
100
AcDbEntity
  8
0
  6
Continuous
 62
    10
100
AcDbLine
 10
22.50445015874473
 20
11.87950559036148
 30
0.0
 11
22.40238405302469
 21
11.88144016531891
 31
0.0
  0
LINE
  5
1FD
330
E8
100
AcDbEntity
  8
0
  6
Continuous
 62
    10
100
AcDbLine
 10
22.40238405302469
 20
11.88144016531891
 30
0.0
 11
22.30034199541277
 21
11.87870284474405
 31
0.0
  0
LINE
  5
1FE
330
E8
100
AcDbEntity
  8
0
  6
Continuous
 62
    10
100
AcDbLine
 10
22.30034199541277
 20
11.87870284474405
 30
0.0
 11
22.19860367609616
 21
11.87130113144298
 31
0.0
  0
LINE
  5
1FF
330
E8
100
AcDbEntity
  8
0
  6
Continuous
 62
    10
100
AcDbLine
 10
22.19860367609616
 20
11.87130113144298
 30
0.0
 11
22.09744795273699
 21
11.85925531299739
 31
0.0
  0
LINE
  5
200
330
E8
100
AcDbEntity
  8
0
  6
Continuous
 62
    10
100
AcDbLine
 10
22.09744795273699
 20
11.85925531299739
 30
0.0
 11
21.99715208614069
 21
11.84259840615772
 31
0.0
  0
LINE
  5
201
330
E8
100
AcDbEntity
  8
0
  6
Continuous
 62
    10
100
AcDbLine
 10
21.99715208614069
 20
11.84259840615772
 30
0.0
 11
21.89799098030679
 21
11.82137606634836
 31
0.0
  0
LINE
  5
202
330
E8
100
AcDbEntity
  8
0
  6
Continuous
 62
    10
100
AcDbLine
 10
21.89799098030679
 20
11.82137606634836
 30
0.0
 11
21.80023642893391
 21
11.79564646252715
 31
0.0
  0
LINE
  5
203
330
E8
100
AcDbEntity
  8
0
  6
Continuous
 62
    10
100
AcDbLine
 10
21.80023642893391
 20
11.79564646252715
 30
0.0
 11
21.70415637045178
 21
11.76548011774997
 31
0.0
  0
LINE
  5
204
330
E8
100
AcDbEntity
  8
0
  6
Continuous
 62
    10
100
AcDbLine
 10
21.70415637045178
 20
11.76548011774997
 30
0.0
 11
21.61001415362333
 21
11.73095971587094
 31
0.0
  0
LINE
  5
205
330
E8
100
AcDbEntity
  8
0
  6
Continuous
 62
    10
100
AcDbLine
 10
21.61001415362333
 20
11.73095971587094
 30
0.0
 11
21.51806781572012
 21
11.69217987491214
 31
0.0
  0
LINE
  5
206
330
E8
100
AcDbEntity
  8
0
  6
Continuous
 62
    10
100
AcDbLine
 10
21.51806781572012
 20
11.69217987491214
 30
0.0
 11
21.42856937526383
 21
11.6492468877222
 31
0.0
  0
LINE
  5
207
330
E8
100
AcDbEntity
  8
0
  6
Continuous
 62
    10
100
AcDbLine
 10
21.42856937526383
 20
11.6492468877222
 30
0.0
 11
21.34176414125866
 21
11.60227843063461
 31
0.0
  0
LINE
  5
208
330
E8
100
AcDbEntity
  8
0
  6
Continuous
 62
    10
100
AcDbLine
 10
21.34176414125866
 20
11.60227843063461
 30
0.0
 11
21.25789004081687
 21
11.55140324092594
 31
0.0
  0
LINE
  5
209
330
E8
100
AcDbEntity
  8
0
  6
Continuous
 62
    10
100
AcDbLine
 10
21.25789004081687
 20
11.55140324092594
 30
0.0
 11
21.17717696701837
 21
11.49676076395411
 31
0.0
  0
LINE
  5
20A
330
E8
100
AcDbEntity
  8
0
  6
Continuous
 62
    10
100
AcDbLine
 10
21.17717696701837
 20
11.49676076395411
 30
0.0
 11
21.0998461487882
 21
11.43850077095107
 31
0.0
  0
LINE
  5
20B
330
E8
100
AcDbEntity
  8
0
  6
Continuous
 62
    10
100
AcDbLine
 10
21.0998461487882
 20
11.43850077095107
 30
0.0
 11
21.02610954452328
 21
11.37678294850724
 31
0.0
  0
LINE
  5
20C
330
E8
100
AcDbEntity
  8
0
  6
Continuous
 62
    10
100
AcDbLine
 10
21.02610954452328
 20
11.37678294850724
 30
0.0
 11
20.95616926113078
 21
11.31177646088503
 31
0.0
  0
LINE
  5
20D
330
E8
100
AcDbEntity
  8
0
  6
Continuous
 62
    10
100
AcDbLine
 10
20.95616926113078
 20
11.31177646088503
 30
0.0
 11
20.89021700006631
 21
11.24365948634744
 31
0.0
  0
LINE
  5
20E
330
E8
100
AcDbEntity
  8
0
  6
Continuous
 62
    10
100
AcDbLine
 10
20.89021700006631
 20
11.24365948634744
 30
0.0
 11
20.8284335318929
 21
11.17261872878765
 31
0.0
  0
LINE
  5
20F
330
E8
100
AcDbEntity
  8
0
  6
Continuous
 62
    10
100
AcDbLine
 10
20.8284335318929
 20
11.17261872878765
 30
0.0
 11
20.7709882008019
 21
11.09884890598408
 31
0.0
  0
LINE
  5
210
330
E8
100
AcDbEntity
  8
0
  6
Continuous
 62
    10
100
AcDbLine
 10
20.7709882008019
 20
11.09884890598408
 30
0.0
 11
20.71803846045376
 21
11.02255221589297
 31
0.0
  0
LINE
  5
211
330
E8
100
AcDbEntity
  8
0
  6
Continuous
 62
    10
100
AcDbLine
 10
20.71803846045376
 20
11.02255221589297
 30
0.0
 11
20.6697294424055
 21
10.9439377824387
 31
0.0
  0
LINE
  5
212
330
E8
100
AcDbEntity
  8
0
  6
Continuous
 62
    10
100
AcDbLine
 10
20.6697294424055
 20
10.9439377824387
 30
0.0
 11
20.62619355831819
 21
10.86322108231883
 31
0.0
  0
LINE
  5
213
330
E8
100
AcDbEntity
  8
0
  6
Continuous
 62
    10
100
AcDbLine
 10
20.62619355831819
 20
10.86322108231883
 30
0.0
 11
20.58755013702356
 21
10.7806233543983
 31
0.0
  0
LINE
  5
214
330
E8
100
AcDbEntity
  8
0
  6
Continuous
 62
    10
100
AcDbLine
 10
20.58755013702356
 20
10.7806233543983
 30
0.0
 11
20.55390509745374
 21
10.69637099330743
 31
0.0
  0
LINE
  5
215
330
E8
100
AcDbEntity
  8
0
  6
Continuous
 62
    10
100
AcDbLine
 10
20.55390509745374
 20
10.69637099330743
 30
0.0
 11
20.52535065832333
 21
10.61069492891232
 31
0.0
  0
LINE
  5
216
330
E8
100
AcDbEntity
  8
0
  6
Continuous
 62
    10
100
AcDbLine
 10
20.52535065832333
 20
10.61069492891232
 30
0.0
 11
20.5019650853649
 21
10.52382999334981
 31
0.0
  0
LINE
  5
217
330
E8
100
AcDbEntity
  8
0
  6
Continuous
 62
    10
100
AcDbLine
 10
20.5019650853649
 20
10.52382999334981
 30
0.0
 11
20.48381247680871
 21
10.43601427737025
 31
0.0
  0
LINE
  5
218
330
E8
100
AcDbEntity
  8
0
  6
Continuous
 62
    10
100
AcDbLine
 10
20.48381247680871
 20
10.43601427737025
 30
0.0
 11
20.47094258769337
 21
10.34748847774739
 31
0.0
  0
LINE
  5
219
330
E8
100
AcDbEntity
  8
0
  6
Continuous
 62
    10
100
AcDbLine
 10
20.47094258769337
 20
10.34748847774739
 30
0.0
 11
20.46339069348986
 21
10.25849523754499
 31
0.0
  0
LINE
  5
21A
330
E8
100
AcDbEntity
  8
0
  6
Continuous
 62
    10
100
AcDbLine
 10
20.46339069348986
 20
10.25849523754499
 30
0.0
 11
20.46117749341536
 21
10.16927848104746
 31
0.0
  0
LINE
  5
21B
330
E8
100
AcDbEntity
  8
0
  6
Continuous
 62
    10
100
AcDbLine
 10
20.46117749341536
 20
10.16927848104746
 30
0.0
 11
20.46430905369724
 21
10.08008274518437
 31
0.0
  0
LINE
  5
21C
330
E8
100
AcDbEntity
  8
0
  6
Continuous
 62
    10
100
AcDbLine
 10
20.46430905369724
 20
10.08008274518437
 30
0.0
 11
20.47277679094694
 21
9.991152509266556
 31
0.0
  0
LINE
  5
21D
330
E8
100
AcDbEntity
  8
0
  6
Continuous
 62
    10
100
AcDbLine
 10
20.47277679094694
 20
9.991152509266556
 30
0.0
 11
20.48655749568505
 21
9.90273152488993
 31
0.0
  0
LINE
  5
21E
330
E8
100
AcDbEntity
  8
0
  6
Continuous
 62
    10
100
AcDbLine
 10
20.48655749568505
 20
9.90273152488993
 30
0.0
 11
20.50561339595768
 21
9.815062147826609
 31
0.0
  0
LINE
  5
21F
330
E8
100
AcDbEntity
  8
0
  6
Continuous
 62
    10
100
AcDbLine
 10
20.50561339595768
 20
9.815062147826609
 30
0.0
 11
20.529892260867
 21
9.728384673744984
 31
0.0
  0
LINE
  5
220
330
E8
100
AcDbEntity
  8
0
  6
Continuous
 62
    10
100
AcDbLine
 10
20.529892260867
 20
9.728384673744984
 30
0.0
 11
20.5593275437316
 21
9.642936679576849
 31
0.0
  0
LINE
  5
221
330
E8
100
AcDbEntity
  8
0
  6
Continuous
 62
    10
100
AcDbLine
 10
20.5593275437316
 20
9.642936679576849
 30
0.0
 11
20.59383856448702
 21
9.558952372335114
 31
0.0
  0
LINE
  5
222
330
E8
100
AcDbEntity
  8
0
  6
Continuous
 62
    10
100
AcDbLine
 10
20.59383856448702
 20
9.558952372335114
 30
0.0
 11
20.63333073082438
 21
9.476661947167429
 31
0.0
  0
LINE
  5
223
330
E8
100
AcDbEntity
  8
0
  6
Continuous
 62
    10
100
AcDbLine
 10
20.63333073082438
 20
9.476661947167429
 30
0.0
 11
20.67769579746144
 21
9.3962909564097
 31
0.0
  0
LINE
  5
224
330
E8
100
AcDbEntity
  8
0
  6
Continuous
 62
    10
100
AcDbLine
 10
20.67769579746144
 20
9.3962909564097
 30
0.0
 11
20.72681216283334
 21
9.318059691361157
 31
0.0
  0
LINE
  5
225
330
E8
100
AcDbEntity
  8
0
  6
Continuous
 62
    10
100
AcDbLine
 10
20.72681216283334
 20
9.318059691361157
 30
0.0
 11
20.78054520239701
 21
9.242182578481732
 31
0.0
  0
LINE
  5
226
330
E8
100
AcDbEntity
  8
0
  6
Continuous
 62
    10
100
AcDbLine
 10
20.78054520239701
 20
9.242182578481732
 30
0.0
 11
20.83874763762586
 21
9.168867591662945
 31
0.0
  0
LINE
  5
227
330
E8
100
AcDbEntity
  8
0
  6
Continuous
 62
    10
100
AcDbLine
 10
20.83874763762586
 20
9.168867591662945
 30
0.0
 11
20.90125993969085
 21
9.098315682188002
 31
0.0
  0
LINE
  5
228
330
E8
100
AcDbEntity
  8
0
  6
Continuous
 62
    10
100
AcDbLine
 10
20.90125993969085
 20
9.098315682188002
 30
0.0
 11
20.96791076671732
 21
9.030720227937252
 31
0.0
  0
LINE
  5
229
330
E8
100
AcDbEntity
  8
0
  6
Continuous
 62
    10
100
AcDbLine
 10
20.96791076671732
 20
9.030720227937252
 30
0.0
 11
21.03851743342037
 21
8.966266503351505
 31
0.0
  0
LINE
  5
22A
330
E8
100
AcDbEntity
  8
0
  6
Continuous
 62
    10
100
AcDbLine
 10
21.03851743342037
 20
8.966266503351505
 30
0.0
 11
21.11288641183526
 21
8.905131171609753
 31
0.0
  0
LINE
  5
22B
330
E8
100
AcDbEntity
  8
0
  6
Continuous
 62
    10
100
AcDbLine
 10
21.11288641183526
 20
8.905131171609753
 30
0.0
 11
21.1908138617612
 21
8.84748180040782
 31
0.0
  0
LINE
  5
22C
330
E8
100
AcDbEntity
  8
0
  6
Continuous
 62
    10
100
AcDbLine
 10
21.1908138617612
 20
8.84748180040782
 30
0.0
 11
21.27208618947432
 21
8.793476402663543
 31
0.0
  0
LINE
  5
22D
330
E8
100
AcDbEntity
  8
0
  6
Continuous
 62
    10
100
AcDbLine
 10
21.27208618947432
 20
8.793476402663543
 30
0.0
 11
21.35648063317356
 21
8.743263003419486
 31
0.0
  0
LINE
  5
22E
330
E8
100
AcDbEntity
  8
0
  6
Continuous
 62
    10
100
AcDbLine
 10
21.35648063317356
 20
8.743263003419486
 30
0.0
 11
21.44376587355535
 21
8.696979234112348
 31
0.0
  0
LINE
  5
22F
330
E8
100
AcDbEntity
  8
0
  6
Continuous
 62
    10
100
AcDbLine
 10
21.44376587355535
 20
8.696979234112348
 30
0.0
 11
21.53370266784285
 21
8.654751955336394
 31
0.0
  0
LINE
  5
230
330
E8
100
AcDbEntity
  8
0
  6
Continuous
 62
    10
100
AcDbLine
 10
21.53370266784285
 20
8.654751955336394
 30
0.0
 11
21.62604450553434
 21
8.616696909128166
 31
0.0
  0
LINE
  5
231
330
E8
100
AcDbEntity
  8
0
  6
Continuous
 62
    10
100
AcDbLine
 10
21.62604450553434
 20
8.616696909128166
 30
0.0
 11
21.7205382840705
 21
8.582918401723362
 31
0.0
  0
LINE
  5
232
330
E8
100
AcDbEntity
  8
0
  6
Continuous
 62
    10
100
AcDbLine
 10
21.7205382840705
 20
8.582918401723362
 30
0.0
 11
21.81692500257375
 21
8.553509017663089
 31
0.0
  0
LINE
  5
233
330
E8
100
AcDbEntity
  8
0
  6
Continuous
 62
    10
100
AcDbLine
 10
21.81692500257375
 20
8.553509017663089
 30
0.0
 11
21.914940471748
 21
8.528549366024833
 31
0.0
  0
LINE
  5
234
330
E8
100
AcDbEntity
  8
0
  6
Continuous
 62
    10
100
AcDbLine
 10
21.914940471748
 20
8.528549366024833
 30
0.0
 11
22.01431603800464
 21
8.508107859479367
 31
0.0
  0
LINE
  5
235
330
E8
100
AcDbEntity
  8
0
  6
Continuous
 62
    10
100
AcDbLine
 10
22.01431603800464
 20
8.508107859479367
 30
0.0
 11
22.11477931982498
 21
8.492240526774765
 31
0.0
  0
LINE
  5
236
330
E8
100
AcDbEntity
  8
0
  6
Continuous
 62
    10
100
AcDbLine
 10
22.11477931982498
 20
8.492240526774765
 30
0.0
 11
22.21605495433622
 21
8.480990859166866
 31
0.0
  0
LINE
  5
237
330
E8
100
AcDbEntity
  8
0
  6
Continuous
 62
    10
100
AcDbLine
 10
22.21605495433622
 20
8.480990859166866
 30
0.0
 11
22.31786535206336
 21
8.474389691213162
 31
0.0
  0
LINE
  5
238
330
E8
100
AcDbEntity
  8
0
  6
Continuous
 62
    10
100
AcDbLine
 10
22.31786535206336
 20
8.474389691213162
 30
0.0
 11
22.41115775540428
 21
8.47243786311077
 31
0.0
  0
ARC
  5
239
330
E8
100
AcDbEntity
  8
0
  6
Continuous
 62
    10
100
AcDbCircle
 10
18.70007487521823
 20
11.39630511368426
 30
0.0
 40
2.925000000000001
100
AcDbArc
 50
262.9150790809728
 51
301.013264262784
  0
ARC
  5
23A
330
E8
100
AcDbEntity
  8
0
  6
Continuous
 62
    10
100
AcDbCircle
 10
18.70007487521823
 20
11.39630511368426
 30
0.0
 40
2.925000000000001
100
AcDbArc
 50
262.9150790809728
 51
301.013264262784
  0
ARC
  5
23B
330
E8
100
AcDbEntity
  8
0
  6
Continuous
 62
    10
100
AcDbCircle
 10
19.41357091801663
 20
13.8421587900911
 30
0.0
 40
4.875
100
AcDbArc
 50
266.343705491231
 51
278.787123097336
  0
ARC
  5
23C
330
E8
100
AcDbEntity
  8
0
  6
Continuous
 62
    10
100
AcDbCircle
 10
19.41357091801663
 20
13.8421587900911
 30
0.0
 40
4.875
100
AcDbArc
 50
266.343705491231
 51
278.787123097336
  0
ARC
  5
23D
330
E8
100
AcDbEntity
  8
0
  6
Continuous
 62
    10
100
AcDbCircle
 10
19.12133996772243
 20
9.268986223732952
 30
0.0
 40
0.2925
100
AcDbArc
 50
180.0000000000001
 51
266.3437054912312
  0
ARC
  5
23E
330
E8
100
AcDbEntity
  8
0
  6
Continuous
 62
    10
100
AcDbCircle
 10
19.12133996772243
 20
9.268986223732952
 30
0.0
 40
0.2925
100
AcDbArc
 50
180.0000000000001
 51
266.3437054912312
  0
ARC
  5
23F
330
E8
100
AcDbEntity
  8
0
  6
Continuous
 62
    10
100
AcDbCircle
 10
18.41446496772258
 20
9.098361223732752
 30
0.0
 40
0.609375
100
AcDbArc
 50
180.0
 51
262.9150790809728
  0
ARC
  5
240
330
E8
100
AcDbEntity
  8
0
  6
Continuous
 62
    10
100
AcDbCircle
 10
18.41446496772258
 20
9.098361223732752
 30
0.0
 40
0.609375
100
AcDbArc
 50
180.0
 51
262.9150790809728
  0
ARC
  5
241
330
E8
100
AcDbEntity
  8
0
  6
Continuous
 62
    10
100
AcDbCircle
 10
20.16946496772269
 20
8.95211122373297
 30
0.0
 40
0.073125
100
AcDbArc
 50
293.3272787520449
 51
98.78712309733687
  0
ARC
  5
242
330
E8
100
AcDbEntity
  8
0
  6
Continuous
 62
    10
100
AcDbCircle
 10
20.16946496772269
 20
8.95211122373297
 30
0.0
 40
0.073125
100
AcDbArc
 50
293.3272787520449
 51
98.78712309733687
  0
LINE
  5
243
330
E8
100
AcDbEntity
  8
0
  6
Continuous
 62
    10
100
AcDbLine
 10
19.96672599704951
 20
12.1002582070841
 30
0.0
 11
19.78829593899152
 21
11.88319764078727
 31
0.0
  0
LINE
  5
244
330
E8
100
AcDbEntity
  8
0
  6
Continuous
 62
    10
100
AcDbLine
 10
19.82821496772274
 20
11.39569764078709
 30
0.0
 11
20.09071496772211
 21
12.0256976407872
 31
0.0
  0
ARC
  5
245
330
E8
100
AcDbEntity
  8
0
  6
Continuous
 62
    10
100
AcDbCircle
 10
20.02321496772245
 20
12.05382264078702
 30
0.0
 40
0.073125
100
AcDbArc
 50
337.3801350519598
 51
140.5788072314997
  0
ARC
  5
246
330
E8
100
AcDbEntity
  8
0
  6
Continuous
 62
    10
100
AcDbCircle
 10
20.02321496772245
 20
12.05382264078702
 30
0.0
 40
0.073125
100
AcDbArc
 50
337.3801350519598
 51
140.5788072314997
  0
LINE
  5
247
330
E8
100
AcDbEntity
  8
0
  6
Continuous
 62
    10
100
AcDbLine
 10
18.82883996772242
 20
11.88319764078727
 30
0.0
 11
18.82883996772242
 21
12.73632264078736
 31
0.0
  0
LINE
  5
248
330
E8
100
AcDbEntity
  8
0
  6
Continuous
 62
    10
100
AcDbLine
 10
18.82883996772242
 20
11.39569764078709
 30
0.0
 11
19.82821496772274
 21
11.39569764078709
 31
0.0
  0
ARC
  5
249
330
E8
100
AcDbEntity
  8
0
  6
Continuous
 62
    10
100
AcDbCircle
 10
11.36954890479572
 20
19.34058198874794
 30
0.0
 40
9.75
100
AcDbArc
 50
307.5845394141336
 51
318.0102642623348
  0
ARC
  5
24A
330
E8
100
AcDbEntity
  8
0
  6
Continuous
 62
    10
100
AcDbCircle
 10
11.36954890479572
 20
19.34058198874794
 30
0.0
 40
9.75
100
AcDbArc
 50
307.5845394141336
 51
318.0102642623348
  0
ARC
  5
24B
330
E8
100
AcDbEntity
  8
0
  6
Continuous
 62
    10
100
AcDbCircle
 10
18.7069649677226
 20
12.73632264078736
 30
0.0
 40
0.121875
100
AcDbArc
 50
0.0
 51
138.0102642623347
  0
ARC
  5
24C
330
E8
100
AcDbEntity
  8
0
  6
Continuous
 62
    10
100
AcDbCircle
 10
18.7069649677226
 20
12.73632264078736
 30
0.0
 40
0.121875
100
AcDbArc
 50
0.0
 51
138.0102642623347
  0
ARC
  5
24D
330
E8
100
AcDbEntity
  8
0
  6
Continuous
 62
    10
100
AcDbCircle
 10
17.39071496772274
 20
11.51757264078736
 30
0.0
 40
0.121875
100
AcDbArc
 50
127.5845394141342
 51
270.0
  0
ARC
  5
24E
330
E8
100
AcDbEntity
  8
0
  6
Continuous
 62
    10
100
AcDbCircle
 10
17.39071496772274
 20
11.51757264078736
 30
0.0
 40
0.121875
100
AcDbArc
 50
127.5845394141342
 51
270.0
  0
LINE
  5
24F
330
E8
100
AcDbEntity
  8
0
  6
Continuous
 62
    10
100
AcDbLine
 10
17.39071496772274
 20
11.39569764078709
 30
0.0
 11
17.80508996772258
 21
11.39569764078709
 31
0.0
  0
LINE
  5
250
330
E8
100
AcDbEntity
  8
0
  6
Continuous
 62
    10
100
AcDbLine
 10
18.82883996772242
 20
9.268986223732952
 30
0.0
 11
18.82883996772242
 21
11.39569764078709
 31
0.0
  0
LINE
  5
251
330
E8
100
AcDbEntity
  8
0
  6
Continuous
 62
    10
100
AcDbLine
 10
17.80508996772258
 20
9.098361223732752
 30
0.0
 11
17.80508996772258
 21
11.39569764078709
 31
0.0
  0
LINE
  5
252
330
E8
100
AcDbEntity
  8
0
  6
Continuous
 62
    10
100
AcDbLine
 10
18.82883996772242
 20
11.88319764078727
 30
0.0
 11
19.78829593899152
 21
11.88319764078727
 31
0.0
  0
ARC
  5
253
330
E8
100
AcDbEntity
  8
0
  6
Continuous
 62
    10
100
AcDbCircle
 10
14.86129645783765
 20
14.2617456274524
 30
0.0
 40
1.962906515032175
100
AcDbArc
 50
304.4189155261381
 51
325.764303502095
  0
ARC
  5
254
330
E8
100
AcDbEntity
  8
0
  6
Continuous
 62
    10
100
AcDbCircle
 10
14.86129645783765
 20
14.2617456274524
 30
0.0
 40
1.962906515032175
100
AcDbArc
 50
304.4189155261381
 51
325.764303502095
  0
ARC
  5
255
330
E8
100
AcDbEntity
  8
0
  6
Continuous
 62
    10
100
AcDbCircle
 10
14.86129645783765
 20
12.17923342580883
 30
0.0
 40
1.962906515032175
100
AcDbArc
 50
34.23569649790501
 51
55.58108447386191
  0
ARC
  5
256
330
E8
100
AcDbEntity
  8
0
  6
Continuous
 62
    10
100
AcDbCircle
 10
14.86129645783765
 20
12.17923342580883
 30
0.0
 40
1.962906515032175
100
AcDbArc
 50
34.23569649790501
 51
55.58108447386191
  0
ARC
  5
257
330
E8
100
AcDbEntity
  8
0
  6
Continuous
 62
    10
100
AcDbCircle
 10
16.94021759495925
 20
12.17923342580883
 30
0.0
 40
1.962906515032175
100
AcDbArc
 50
124.4189155261381
 51
145.764303502095
  0
ARC
  5
258
330
E8
100
AcDbEntity
  8
0
  6
Continuous
 62
    10
100
AcDbCircle
 10
16.94021759495925
 20
12.17923342580883
 30
0.0
 40
1.962906515032175
100
AcDbArc
 50
124.4189155261381
 51
145.764303502095
  0
ARC
  5
259
330
E8
100
AcDbEntity
  8
0
  6
Continuous
 62
    10
100
AcDbCircle
 10
16.94021759495925
 20
14.2617456274524
 30
0.0
 40
1.962906515032175
100
AcDbArc
 50
214.235696497905
 51
235.5810844738619
  0
ARC
  5
25A
330
E8
100
AcDbEntity
  8
0
  6
Continuous
 62
    10
100
AcDbCircle
 10
16.94021759495925
 20
14.2617456274524
 30
0.0
 40
1.962906515032175
100
AcDbArc
 50
214.235696497905
 51
235.5810844738619
  0
ARC
  5
25B
330
E8
100
AcDbEntity
  8
0
  6
Continuous
 62
    10
100
AcDbCircle
 10
15.90075702639822
 20
12.7268957766309
 30
0.0
 40
0.1096875
100
AcDbArc
 50
230.309072059704
 51
309.690927940296
  0
ARC
  5
25C
330
E8
100
AcDbEntity
  8
0
  6
Continuous
 62
    10
100
AcDbCircle
 10
15.90075702639822
 20
12.7268957766309
 30
0.0
 40
0.1096875
100
AcDbArc
 50
230.309072059704
 51
309.690927940296
  0
ARC
  5
25D
330
E8
100
AcDbEntity
  8
0
  6
Continuous
 62
    10
100
AcDbCircle
 10
15.40716327639828
 20
13.22048952663084
 30
0.0
 40
0.1096875
100
AcDbArc
 50
144.8991158941796
 51
215.1008841058204
  0
ARC
  5
25E
330
E8
100
AcDbEntity
  8
0
  6
Continuous
 62
    10
100
AcDbCircle
 10
15.40716327639828
 20
13.22048952663084
 30
0.0
 40
0.1096875
100
AcDbArc
 50
144.8991158941796
 51
215.1008841058204
  0
ARC
  5
25F
330
E8
100
AcDbEntity
  8
0
  6
Continuous
 62
    10
100
AcDbCircle
 10
15.90075702639822
 20
13.71408327663079
 30
0.0
 40
0.1096875
100
AcDbArc
 50
50.30907205969739
 51
129.6909279403026
  0
ARC
  5
260
330
E8
100
AcDbEntity
  8
0
  6
Continuous
 62
    10
100
AcDbCircle
 10
15.90075702639822
 20
13.71408327663079
 30
0.0
 40
0.1096875
100
AcDbArc
 50
50.30907205969739
 51
129.6909279403026
  0
ARC
  5
261
330
E8
100
AcDbEntity
  8
0
  6
Continuous
 62
    10
100
AcDbCircle
 10
16.39435077639862
 20
13.22048952663084
 30
0.0
 40
0.1096875
100
AcDbArc
 50
324.8991158943591
 51
35.10088410564087
  0
ARC
  5
262
330
E8
100
AcDbEntity
  8
0
  6
Continuous
 62
    10
100
AcDbCircle
 10
16.39435077639862
 20
13.22048952663084
 30
0.0
 40
0.1096875
100
AcDbArc
 50
324.8991158943591
 51
35.10088410564087
  0
ARC
  5
263
330
E8
100
AcDbEntity
  8
0
  6
Continuous
 62
    10
100
AcDbCircle
 10
16.54699997534297
 20
8.894246613852772
 30
0.0
 40
0.121875
100
AcDbArc
 50
180.0
 51
263.2885414092329
  0
ARC
  5
264
330
E8
100
AcDbEntity
  8
0
  6
Continuous
 62
    10
100
AcDbCircle
 10
16.54699997534297
 20
8.894246613852772
 30
0.0
 40
0.121875
100
AcDbArc
 50
180.0
 51
263.2885414092329
  0
LINE
  5
265
330
E8
100
AcDbEntity
  8
0
  6
Continuous
 62
    10
100
AcDbLine
 10
17.03918470633042
 20
8.713612467570272
 30
0.0
 11
16.53275652220262
 21
8.773206787069682
 31
0.0
  0
ARC
  5
266
330
E8
100
AcDbEntity
  8
0
  6
Continuous
 62
    10
100
AcDbCircle
 10
17.02494125319006
 20
8.592572640787182
 30
0.0
 40
0.121875
100
AcDbArc
 50
270.0
 51
83.28854140923303
  0
ARC
  5
267
330
E8
100
AcDbEntity
  8
0
  6
Continuous
 62
    10
100
AcDbCircle
 10
17.02494125319006
 20
8.592572640787182
 30
0.0
 40
0.121875
100
AcDbArc
 50
270.0
 51
83.28854140923303
  0
ARC
  5
268
330
E8
100
AcDbEntity
  8
0
  6
Continuous
 62
    10
100
AcDbCircle
 10
15.27949997534304
 20
8.88963475059785
 30
0.0
 40
0.121875
100
AcDbArc
 50
276.7114585907671
 51
0.0
  0
ARC
  5
269
330
E8
100
AcDbEntity
  8
0
  6
Continuous
 62
    10
100
AcDbCircle
 10
15.27949997534304
 20
8.88963475059785
 30
0.0
 40
0.121875
100
AcDbArc
 50
276.7114585907671
 51
0.0
  0
LINE
  5
26A
330
E8
100
AcDbEntity
  8
0
  6
Continuous
 62
    10
100
AcDbLine
 10
14.82650652220289
 20
8.713612467570272
 30
0.0
 11
15.29374342848294
 21
8.76859492381476
 31
0.0
  0
ARC
  5
26B
330
E8
100
AcDbEntity
  8
0
  6
Continuous
 62
    10
100
AcDbCircle
 10
14.84074997534324
 20
8.592572640787182
 30
0.0
 40
0.121875
100
AcDbArc
 50
96.71145859076694
 51
270.0
  0
ARC
  5
26C
330
E8
100
AcDbEntity
  8
0
  6
Continuous
 62
    10
100
AcDbCircle
 10
14.84074997534324
 20
8.592572640787182
 30
0.0
 40
0.121875
100
AcDbArc
 50
96.71145859076694
 51
270.0
  0
LINE
  5
26D
330
E8
100
AcDbEntity
  8
0
  6
Continuous
 62
    10
100
AcDbLine
 10
15.27949997534304
 20
11.22308890377184
 30
0.0
 11
14.83350100315354
 21
11.24966341167914
 31
0.0
  0
ARC
  5
26E
330
E8
100
AcDbEntity
  8
0
  6
Continuous
 62
    10
100
AcDbCircle
 10
15.27949997534304
 20
11.10121390377157
 30
0.0
 40
0.121875
100
AcDbArc
 50
0.0
 51
90.0
  0
ARC
  5
26F
330
E8
100
AcDbEntity
  8
0
  6
Continuous
 62
    10
100
AcDbCircle
 10
15.27949997534304
 20
11.10121390377157
 30
0.0
 40
0.121875
100
AcDbArc
 50
0.0
 51
90.0
  0
ARC
  5
270
330
E8
100
AcDbEntity
  8
0
  6
Continuous
 62
    10
100
AcDbCircle
 10
13.03587211421134
 20
21.076802120031
 30
0.0
 40
9.75
100
AcDbArc
 50
280.5346603333461
 51
289.3281740229292
  0
ARC
  5
271
330
E8
100
AcDbEntity
  8
0
  6
Continuous
 62
    10
100
AcDbCircle
 10
13.03587211421134
 20
21.076802120031
 30
0.0
 40
9.75
100
AcDbArc
 50
280.5346603333461
 51
289.3281740229292
  0
ARC
  5
272
330
E8
100
AcDbEntity
  8
0
  6
Continuous
 62
    10
100
AcDbCircle
 10
16.30324997534288
 20
11.761322640787
 30
0.0
 40
0.121875
100
AcDbArc
 50
0.0
 51
109.3281740229283
  0
ARC
  5
273
330
E8
100
AcDbEntity
  8
0
  6
Continuous
 62
    10
100
AcDbCircle
 10
16.30324997534288
 20
11.761322640787
 30
0.0
 40
0.121875
100
AcDbArc
 50
0.0
 51
109.3281740229283
  0
ARC
  5
274
330
E8
100
AcDbEntity
  8
0
  6
Continuous
 62
    10
100
AcDbCircle
 10
14.84074997534324
 20
11.37132264078713
 30
0.0
 40
0.121875
100
AcDbArc
 50
100.534660333345
 51
266.5901063125458
  0
ARC
  5
275
330
E8
100
AcDbEntity
  8
0
  6
Continuous
 62
    10
100
AcDbCircle
 10
14.84074997534324
 20
11.37132264078713
 30
0.0
 40
0.121875
100
AcDbArc
 50
100.534660333345
 51
266.5901063125458
  0
LINE
  5
276
330
E8
100
AcDbEntity
  8
0
  6
Continuous
 62
    10
100
AcDbLine
 10
16.42512497534315
 20
8.894246613852772
 30
0.0
 11
16.42512497534315
 21
11.761322640787
 31
0.0
  0
LINE
  5
277
330
E8
100
AcDbEntity
  8
0
  6
Continuous
 62
    10
100
AcDbLine
 10
15.40137497534286
 20
8.88963475059785
 30
0.0
 11
15.40137497534286
 21
11.10121390377157
 31
0.0
  0
LINE
  5
278
330
E8
100
AcDbEntity
  8
0
  6
Continuous
 62
    10
100
AcDbLine
 10
11.87888099084128
 20
8.470697640787364
 30
0.0
 11
14.07263099084119
 21
8.470697640787364
 31
0.0
  0
LINE
  5
279
330
E8
100
AcDbEntity
  8
0
  6
Continuous
 62
    10
100
AcDbLine
 10
12.6101309908411
 20
11.88319764078727
 30
0.0
 11
14.07263099084119
 21
11.88319764078727
 31
0.0
  0
ARC
  5
27A
330
E8
100
AcDbEntity
  8
0
  6
Continuous
 62
    10
100
AcDbCircle
 10
12.83216940332139
 20
11.50272689024126
 30
0.0
 40
0.121875
100
AcDbArc
 50
308.233797137863
 51
86.30526971831486
  0
ARC
  5
27B
330
E8
100
AcDbEntity
  8
0
  6
Continuous
 62
    10
100
AcDbCircle
 10
12.83216940332139
 20
11.50272689024126
 30
0.0
 40
0.121875
100
AcDbArc
 50
308.233797137863
 51
86.30526971831486
  0
LINE
  5
27C
330
E8
100
AcDbEntity
  8
0
  6
Continuous
 62
    10
100
AcDbLine
 10
12.60227730176464
 20
11.63970095196095
 30
0.0
 11
12.84002309239739
 21
11.62434857906732
 31
0.0
  0
ARC
  5
27D
330
E8
100
AcDbEntity
  8
0
  6
Continuous
 62
    10
100
AcDbCircle
 10
12.6101309908411
 20
11.761322640787
 30
0.0
 40
0.121875
100
AcDbArc
 50
90.0
 51
266.3052697183143
  0
ARC
  5
27E
330
E8
100
AcDbEntity
  8
0
  6
Continuous
 62
    10
100
AcDbCircle
 10
12.6101309908411
 20
11.761322640787
 30
0.0
 40
0.121875
100
AcDbArc
 50
90.0
 51
266.3052697183143
  0
ARC
  5
27F
330
E8
100
AcDbEntity
  8
0
  6
Continuous
 62
    10
100
AcDbCircle
 10
12.22732675387513
 20
8.87301646384634
 30
0.0
 40
0.121875
100
AcDbArc
 50
275.8069532297311
 51
46.974934010882
  0
ARC
  5
280
330
E8
100
AcDbEntity
  8
0
  6
Continuous
 62
    10
100
AcDbCircle
 10
12.22732675387513
 20
8.87301646384634
 30
0.0
 40
0.121875
100
AcDbArc
 50
275.8069532297311
 51
46.974934010882
  0
LINE
  5
281
330
E8
100
AcDbEntity
  8
0
  6
Continuous
 62
    10
100
AcDbLine
 10
11.8665500400746
 20
8.713822231624306
 30
0.0
 11
12.23965770464181
 21
8.751766873009217
 31
0.0
  0
ARC
  5
282
330
E8
100
AcDbEntity
  8
0
  6
Continuous
 62
    10
100
AcDbCircle
 10
11.87888099084128
 20
8.592572640787182
 30
0.0
 40
0.121875
100
AcDbArc
 50
95.80695322973123
 51
270.0
  0
ARC
  5
283
330
E8
100
AcDbEntity
  8
0
  6
Continuous
 62
    10
100
AcDbCircle
 10
11.87888099084128
 20
8.592572640787182
 30
0.0
 40
0.121875
100
AcDbArc
 50
95.80695322973123
 51
270.0
  0
LINE
  5
284
330
E8
100
AcDbEntity
  8
0
  6
Continuous
 62
    10
100
AcDbLine
 10
11.50980059521433
 20
11.64018919042559
 30
0.0
 11
11.13777556898211
 21
11.59896151295101
 31
0.0
  0
ARC
  5
285
330
E8
100
AcDbEntity
  8
0
  6
Continuous
 62
    10
100
AcDbCircle
 10
11.49637663050569
 20
11.761322640787
 30
0.0
 40
0.121875
100
AcDbArc
 50
276.3236945086078
 51
90.0
  0
ARC
  5
286
330
E8
100
AcDbEntity
  8
0
  6
Continuous
 62
    10
100
AcDbCircle
 10
11.49637663050569
 20
11.761322640787
 30
0.0
 40
0.121875
100
AcDbArc
 50
276.3236945086078
 51
90.0
  0
ARC
  5
287
330
E8
100
AcDbEntity
  8
0
  6
Continuous
 62
    10
100
AcDbCircle
 10
14.64047966075648
 20
9.26573688215234
 30
0.0
 40
2.4375
100
AcDbArc
 50
102.8188940537166
 51
128.2337971378629
  0
ARC
  5
288
330
E8
100
AcDbEntity
  8
0
  6
Continuous
 62
    10
100
AcDbCircle
 10
14.64047966075648
 20
9.26573688215234
 30
0.0
 40
2.4375
100
AcDbArc
 50
102.8188940537166
 51
128.2337971378629
  0
ARC
  5
289
330
E8
100
AcDbEntity
  8
0
  6
Continuous
 62
    10
100
AcDbCircle
 10
14.07263099084119
 20
11.761322640787
 30
0.0
 40
0.121875
100
AcDbArc
 50
282.8188940537166
 51
90.0
  0
ARC
  5
28A
330
E8
100
AcDbEntity
  8
0
  6
Continuous
 62
    10
100
AcDbCircle
 10
14.07263099084119
 20
11.761322640787
 30
0.0
 40
0.121875
100
AcDbArc
 50
282.8188940537166
 51
90.0
  0
LINE
  5
28B
330
E8
100
AcDbEntity
  8
0
  6
Continuous
 62
    10
100
AcDbLine
 10
13.13197954540126
 20
11.18037357144152
 30
0.0
 11
12.13385424051447
 21
10.39397260775826
 31
0.0
  0
LINE
  5
28C
330
E8
100
AcDbEntity
  8
0
  6
Continuous
 62
    10
100
AcDbLine
 10
12.90759440908894
 20
11.4069950557768
 30
0.0
 11
11.89947883930543
 21
10.61272298221996
 31
0.0
  0
ARC
  5
28D
330
E8
100
AcDbEntity
  8
0
  6
Continuous
 62
    10
100
AcDbCircle
 10
14.35817478831385
 20
9.6516285908437
 30
0.0
 40
0.9750000000000001
100
AcDbArc
 50
226.9749340108821
 51
254.9106627487853
  0
ARC
  5
28E
330
E8
100
AcDbEntity
  8
0
  6
Continuous
 62
    10
100
AcDbCircle
 10
14.35817478831385
 20
9.6516285908437
 30
0.0
 40
0.9750000000000001
100
AcDbArc
 50
226.9749340108821
 51
254.9106627487853
  0
ARC
  5
28F
330
E8
100
AcDbEntity
  8
0
  6
Continuous
 62
    10
100
AcDbCircle
 10
14.07263099084119
 20
8.592572640787182
 30
0.0
 40
0.121875
100
AcDbArc
 50
270.0
 51
74.91066274878406
  0
ARC
  5
290
330
E8
100
AcDbEntity
  8
0
  6
Continuous
 62
    10
100
AcDbCircle
 10
14.07263099084119
 20
8.592572640787182
 30
0.0
 40
0.121875
100
AcDbArc
 50
270.0
 51
74.91066274878406
  0
LINE
  5
291
330
E8
100
AcDbEntity
  8
0
  6
Continuous
 62
    10
100
AcDbLine
 10
13.69291449421306
 20
8.938849704306847
 30
0.0
 11
12.13385424051447
 21
10.39397260775826
 31
0.0
  0
LINE
  5
292
330
E8
100
AcDbEntity
  8
0
  6
Continuous
 62
    10
100
AcDbLine
 10
12.31048429063802
 20
8.962113824663845
 30
0.0
 11
11.39774238196313
 21
9.81400627276065
 31
0.0
  0
ARC
  5
293
330
E8
100
AcDbEntity
  8
0
  6
Continuous
 62
    10
100
AcDbCircle
 10
29.51509055755585
 20
11.761322640787
 30
0.0
 40
0.121875
100
AcDbArc
 50
282.8188940537166
 51
90.0
  0
ARC
  5
294
330
E8
100
AcDbEntity
  8
0
  6
Continuous
 62
    10
100
AcDbCircle
 10
29.51509055755585
 20
11.761322640787
 30
0.0
 40
0.121875
100
AcDbArc
 50
282.8188940537166
 51
90.0
  0
LINE
  5
295
330
E8
100
AcDbEntity
  8
0
  6
Continuous
 62
    10
100
AcDbLine
 10
28.0447368684793
 20
11.63970095196095
 30
0.0
 11
28.2824826591125
 21
11.62434857906732
 31
0.0
  0
ARC
  5
296
330
E8
100
AcDbEntity
  8
0
  6
Continuous
 62
    10
100
AcDbCircle
 10
28.27462897003605
 20
11.50272689024126
 30
0.0
 40
0.121875
100
AcDbArc
 50
308.233797137863
 51
86.30526971831486
  0
ARC
  5
297
330
E8
100
AcDbEntity
  8
0
  6
Continuous
 62
    10
100
AcDbCircle
 10
28.27462897003605
 20
11.50272689024126
 30
0.0
 40
0.121875
100
AcDbArc
 50
308.233797137863
 51
86.30526971831486
  0
LINE
  5
298
330
E8
100
AcDbEntity
  8
0
  6
Continuous
 62
    10
100
AcDbLine
 10
28.05259055755576
 20
11.88319764078727
 30
0.0
 11
29.51509055755585
 21
11.88319764078727
 31
0.0
  0
ARC
  5
299
330
E8
100
AcDbEntity
  8
0
  6
Continuous
 62
    10
100
AcDbCircle
 10
26.93883619722035
 20
11.761322640787
 30
0.0
 40
0.121875
100
AcDbArc
 50
276.3236945086078
 51
90.0
  0
ARC
  5
29A
330
E8
100
AcDbEntity
  8
0
  6
Continuous
 62
    10
100
AcDbCircle
 10
26.93883619722035
 20
11.761322640787
 30
0.0
 40
0.121875
100
AcDbArc
 50
276.3236945086078
 51
90.0
  0
ARC
  5
29B
330
E8
100
AcDbEntity
  8
0
  6
Continuous
 62
    10
100
AcDbCircle
 10
26.5936591004054
 20
11.47782806258959
 30
0.0
 40
0.121875
100
AcDbArc
 50
96.32369450860737
 51
226.974934010882
  0
ARC
  5
29C
330
E8
100
AcDbEntity
  8
0
  6
Continuous
 62
    10
100
AcDbCircle
 10
26.5936591004054
 20
11.47782806258959
 30
0.0
 40
0.121875
100
AcDbArc
 50
96.32369450860737
 51
226.974934010882
  0
LINE
  5
29D
330
E8
100
AcDbEntity
  8
0
  6
Continuous
 62
    10
100
AcDbLine
 10
26.95226016192944
 20
11.64018919042559
 30
0.0
 11
26.58023513569677
 21
11.59896151295101
 31
0.0
  0
ARC
  5
29E
330
E8
100
AcDbEntity
  8
0
  6
Continuous
 62
    10
100
AcDbCircle
 10
28.05259055755576
 20
11.761322640787
 30
0.0
 40
0.121875
100
AcDbArc
 50
90.0
 51
266.3052697183143
  0
ARC
  5
29F
330
E8
100
AcDbEntity
  8
0
  6
Continuous
 62
    10
100
AcDbCircle
 10
28.05259055755576
 20
11.761322640787
 30
0.0
 40
0.121875
100
AcDbArc
 50
90.0
 51
266.3052697183143
  0
LINE
  5
2A0
330
E8
100
AcDbEntity
  8
0
  6
Continuous
 62
    10
100
AcDbLine
 10
28.57443911211593
 20
11.18037357144152
 30
0.0
 11
27.57631380722913
 21
10.39397260775826
 31
0.0
  0
LINE
  5
2A1
330
E8
100
AcDbEntity
  8
0
  6
Continuous
 62
    10
100
AcDbLine
 10
27.34193840602009
 20
10.61272298221996
 30
0.0
 11
26.51050156364298
 21
11.38873070177209
 31
0.0
  0
LINE
  5
2A2
330
E8
100
AcDbEntity
  8
0
  6
Continuous
 62
    10
100
AcDbLine
 10
28.3500539758036
 20
11.4069950557768
 30
0.0
 11
27.34193840602009
 21
10.61272298221996
 31
0.0
  0
ARC
  5
2A3
330
E8
100
AcDbEntity
  8
0
  6
Continuous
 62
    10
100
AcDbCircle
 10
30.08293922747114
 20
9.26573688215234
 30
0.0
 40
2.4375
100
AcDbArc
 50
102.8188940537166
 51
128.2337971378629
  0
ARC
  5
2A4
330
E8
100
AcDbEntity
  8
0
  6
Continuous
 62
    10
100
AcDbCircle
 10
30.08293922747114
 20
9.26573688215234
 30
0.0
 40
2.4375
100
AcDbArc
 50
102.8188940537166
 51
128.2337971378629
  0
ARC
  5
2A5
330
E8
100
AcDbEntity
  8
0
  6
Continuous
 62
    10
100
AcDbCircle
 10
29.80063435502851
 20
9.6516285908437
 30
0.0
 40
0.9750000000000001
100
AcDbArc
 50
226.9749340108821
 51
254.9106627487853
  0
ARC
  5
2A6
330
E8
100
AcDbEntity
  8
0
  6
Continuous
 62
    10
100
AcDbCircle
 10
29.80063435502851
 20
9.6516285908437
 30
0.0
 40
0.9750000000000001
100
AcDbArc
 50
226.9749340108821
 51
254.9106627487853
  0
ARC
  5
2A7
330
E8
100
AcDbEntity
  8
0
  6
Continuous
 62
    10
100
AcDbCircle
 10
29.51509055755585
 20
8.592572640787182
 30
0.0
 40
0.121875
100
AcDbArc
 50
270.0
 51
74.91066274878406
  0
ARC
  5
2A8
330
E8
100
AcDbEntity
  8
0
  6
Continuous
 62
    10
100
AcDbCircle
 10
29.51509055755585
 20
8.592572640787182
 30
0.0
 40
0.121875
100
AcDbArc
 50
270.0
 51
74.91066274878406
  0
LINE
  5
2A9
330
E8
100
AcDbEntity
  8
0
  6
Continuous
 62
    10
100
AcDbLine
 10
27.30900960678926
 20
8.713822231624306
 30
0.0
 11
27.68211727135693
 21
8.751766873009217
 31
0.0
  0
ARC
  5
2AA
330
E8
100
AcDbEntity
  8
0
  6
Continuous
 62
    10
100
AcDbCircle
 10
27.66978632059025
 20
8.87301646384634
 30
0.0
 40
0.121875
100
AcDbArc
 50
275.8069532297311
 51
46.974934010882
  0
ARC
  5
2AB
330
E8
100
AcDbEntity
  8
0
  6
Continuous
 62
    10
100
AcDbCircle
 10
27.66978632059025
 20
8.87301646384634
 30
0.0
 40
0.121875
100
AcDbArc
 50
275.8069532297311
 51
46.974934010882
  0
LINE
  5
2AC
330
E8
100
AcDbEntity
  8
0
  6
Continuous
 62
    10
100
AcDbLine
 10
26.21948995839583
 20
8.713864916282489
 30
0.0
 11
25.83120834315358
 21
8.751971313393767
 31
0.0
  0
ARC
  5
2AD
330
E8
100
AcDbEntity
  8
0
  6
Continuous
 62
    10
100
AcDbCircle
 10
26.20758619722054
 20
8.592572640787182
 30
0.0
 40
0.121875
100
AcDbArc
 50
270.0
 51
84.3948769589973
  0
ARC
  5
2AE
330
E8
100
AcDbEntity
  8
0
  6
Continuous
 62
    10
100
AcDbCircle
 10
26.20758619722054
 20
8.592572640787182
 30
0.0
 40
0.121875
100
AcDbArc
 50
270.0
 51
84.3948769589973
  0
ARC
  5
2AF
330
E8
100
AcDbEntity
  8
0
  6
Continuous
 62
    10
100
AcDbCircle
 10
27.32134055755594
 20
8.592572640787182
 30
0.0
 40
0.121875
100
AcDbArc
 50
95.80695322973123
 51
270.0
  0
ARC
  5
2B0
330
E8
100
AcDbEntity
  8
0
  6
Continuous
 62
    10
100
AcDbCircle
 10
27.32134055755594
 20
8.592572640787182
 30
0.0
 40
0.121875
100
AcDbArc
 50
95.80695322973123
 51
270.0
  0
LINE
  5
2B1
330
E8
100
AcDbEntity
  8
0
  6
Continuous
 62
    10
100
AcDbLine
 10
27.32134055755594
 20
8.470697640787364
 30
0.0
 11
29.51509055755585
 21
8.470697640787364
 31
0.0
  0
LINE
  5
2B2
330
E8
100
AcDbEntity
  8
0
  6
Continuous
 62
    10
100
AcDbLine
 10
27.75294385735313
 20
8.962113824663845
 30
0.0
 11
26.84020194867779
 21
9.81400627276065
 31
0.0
  0
LINE
  5
2B3
330
E8
100
AcDbEntity
  8
0
  6
Continuous
 62
    10
100
AcDbLine
 10
26.84020194867779
 20
9.81400627276065
 30
0.0
 11
25.76768709856086
 21
8.968995423353533
 31
0.0
  0
LINE
  5
2B4
330
E8
100
AcDbEntity
  8
0
  6
Continuous
 62
    10
100
AcDbLine
 10
29.13537406092772
 20
8.938849704306847
 30
0.0
 11
27.57631380722913
 21
10.39397260775826
 31
0.0
  0
ARC
  5
2B5
330
E8
100
AcDbEntity
  8
0
  6
Continuous
 62
    10
100
AcDbCircle
 10
25.84311210432887
 20
8.873263588889074
 30
0.0
 40
0.121875
100
AcDbArc
 50
128.2337971378629
 51
264.3948769589975
  0
ARC
  5
2B6
330
E8
100
AcDbEntity
  8
0
  6
Continuous
 62
    10
100
AcDbCircle
 10
25.84311210432887
 20
8.873263588889074
 30
0.0
 40
0.121875
100
AcDbArc
 50
128.2337971378629
 51
264.3948769589975
  0
LINE
  5
2B7
330
E8
100
AcDbEntity
  8
0
  6
Continuous
 62
    10
100
AcDbLine
 10
26.60582654746875
 20
10.0327566472219
 30
0.0
 11
25.41839075291526
 21
9.097202114562094
 31
0.0
  0
LINE
  5
2B8
330
E8
100
AcDbEntity
  8
0
  6
Continuous
 62
     1
100
AcDbLine
 10
11.33347667260682
 20
3.151445566391601
 30
0.0
 11
12.13899439794341
 21
3.038984423767715
 31
0.0
  0
LINE
  5
2B9
330
E8
100
AcDbEntity
  8
0
  6
Continuous
 62
     1
100
AcDbLine
 10
12.13899439794341
 20
3.038984423767715
 30
0.0
 11
12.95547558876996
 21
2.94659495457563
 31
0.0
  0
LINE
  5
2BA
330
E8
100
AcDbEntity
  8
0
  6
Continuous
 62
     1
100
AcDbLine
 10
12.95547558876996
 20
2.94659495457563
 30
0.0
 11
13.78076733854263
 21
2.874501311141557
 31
0.0
  0
LINE
  5
2BB
330
E8
100
AcDbEntity
  8
0
  6
Continuous
 62
     1
100
AcDbLine
 10
13.78076733854263
 20
2.874501311141557
 30
0.0
 11
14.61269026811576
 21
2.822879320588726
 31
0.0
  0
LINE
  5
2BC
330
E8
100
AcDbEntity
  8
0
  6
Continuous
 62
     1
100
AcDbLine
 10
14.61269026811576
 20
2.822879320588726
 30
0.0
 11
15.44904507858504
 21
2.791855358557768
 31
0.0
  0
LINE
  5
2BD
330
E8
100
AcDbEntity
  8
0
  6
Continuous
 62
     1
100
AcDbLine
 10
15.44904507858504
 20
2.791855358557768
 30
0.0
 11
16.28761916131023
 21
2.781505561156735
 31
0.0
  0
LINE
  5
2BE
330
E8
100
AcDbEntity
  8
0
  6
Continuous
 62
     1
100
AcDbLine
 10
16.28761916131023
 20
2.781505561156735
 30
0.0
 11
17.12619324403542
 21
2.791855358557768
 31
0.0
  0
LINE
  5
2BF
330
E8
100
AcDbEntity
  8
0
  6
Continuous
 62
     1
100
AcDbLine
 10
17.12619324403542
 20
2.791855358557768
 30
0.0
 11
17.96254805450519
 21
2.822879320588754
 31
0.0
  0
LINE
  5
2C0
330
E8
100
AcDbEntity
  8
0
  6
Continuous
 62
     1
100
AcDbLine
 10
17.96254805450519
 20
2.822879320588754
 30
0.0
 11
18.79447098407783
 21
2.874501311141557
 31
0.0
  0
LINE
  5
2C1
330
E8
100
AcDbEntity
  8
0
  6
Continuous
 62
     1
100
AcDbLine
 10
18.79447098407783
 20
2.874501311141557
 30
0.0
 11
19.61976273385048
 21
2.94659495457563
 31
0.0
  0
LINE
  5
2C2
330
E8
100
AcDbEntity
  8
0
  6
Continuous
 62
     1
100
AcDbLine
 10
19.61976273385048
 20
2.94659495457563
 30
0.0
 11
20.436243924677
 21
3.038984423767715
 31
0.0
  0
LINE
  5
2C3
330
E8
100
AcDbEntity
  8
0
  6
Continuous
 62
     1
100
AcDbLine
 10
20.436243924677
 20
3.038984423767715
 30
0.0
 11
21.24176165001373
 21
3.151445566391601
 31
0.0
  0
LINE
  5
2C4
330
E8
100
AcDbEntity
  8
0
  6
Continuous
 62
     1
100
AcDbLine
 10
21.24176165001373
 20
3.151445566391601
 30
0.0
 11
22.03419594635264
 21
3.283707393598434
 31
0.0
  0
LINE
  5
2C5
330
E8
100
AcDbEntity
  8
0
  6
Continuous
 62
     1
100
AcDbLine
 10
22.03419594635264
 20
3.283707393598434
 30
0.0
 11
22.81146614936264
 21
3.435453963751115
 31
0.0
  0
LINE
  5
2C6
330
E8
100
AcDbEntity
  8
0
  6
Continuous
 62
     1
100
AcDbLine
 10
22.81146614936264
 20
3.435453963751115
 30
0.0
 11
23.5715370938226
 21
3.6063267033486
 31
0.0
  0
LINE
  5
2C7
330
E8
100
AcDbEntity
  8
0
  6
Continuous
 62
     1
100
AcDbLine
 10
23.5715370938226
 20
3.6063267033486
 30
0.0
 11
24.31242510020135
 21
3.795927217531698
 31
0.0
  0
LINE
  5
2C8
330
E8
100
AcDbEntity
  8
0
  6
Continuous
 62
     1
100
AcDbLine
 10
24.31242510020135
 20
3.795927217531698
 30
0.0
 11
25.03220366829177
 21
4.003820653048393
 31
0.0
  0
LINE
  5
2C9
330
E8
100
AcDbEntity
  8
0
  6
Continuous
 62
     1
100
AcDbLine
 10
25.03220366829177
 20
4.003820653048393
 30
0.0
 11
25.72900876520501
 21
4.229539685723893
 31
0.0
  0
LINE
  5
2CA
330
E8
100
AcDbEntity
  8
0
  6
Continuous
 62
     1
100
AcDbLine
 10
25.72900876520501
 20
4.229539685723893
 30
0.0
 11
26.40104354704479
 21
4.47258920930426
 31
0.0
  0
LINE
  5
2CB
330
E8
100
AcDbEntity
  8
0
  6
Continuous
 62
     1
100
AcDbLine
 10
26.40104354704479
 20
4.47258920930426
 30
0.0
 11
27.04658228477456
 21
4.732451797268482
 31
0.0
  0
LINE
  5
2CC
330
E8
100
AcDbEntity
  8
0
  6
Continuous
 62
     1
100
AcDbLine
 10
27.04658228477456
 20
4.732451797268482
 30
0.0
 11
27.66397316831993
 21
5.008593983541004
 31
0.0
  0
LINE
  5
2CD
330
E8
100
AcDbEntity
  8
0
  6
Continuous
 62
     1
100
AcDbLine
 10
27.66397316831993
 20
5.008593983541004
 30
0.0
 11
28.25163953128725
 21
5.300473344271154
 31
0.0
  0
LINE
  5
2CE
330
E8
100
AcDbEntity
  8
0
  6
Continuous
 62
     1
100
AcDbLine
 10
28.25163953128725
 20
5.300473344271154
 30
0.0
 11
28.80807886714524
 21
5.607546231788888
 31
0.0
  0
LINE
  5
2CF
330
E8
100
AcDbEntity
  8
0
  6
Continuous
 62
     1
100
AcDbLine
 10
28.80807886714524
 20
5.607546231788888
 30
0.0
 11
29.33185880044485
 21
5.92927576784615
 31
0.0
  0
LINE
  5
2D0
330
E8
100
AcDbEntity
  8
0
  6
Continuous
 62
     1
100
AcDbLine
 10
29.33185880044485
 20
5.92927576784615
 30
0.0
 11
29.82160896069675
 21
6.26513927983595
 31
0.0
  0
LINE
  5
2D1
330
E8
100
AcDbEntity
  8
0
  6
Continuous
 62
     1
100
AcDbLine
 10
29.82160896069675
 20
6.26513927983595
 30
0.0
 11
30.27600755726559
 21
6.614633675587243
 31
0.0
  0
LINE
  5
2D2
330
E8
100
AcDbEntity
  8
0
  6
Continuous
 62
     1
100
AcDbLine
 10
30.27600755726559
 20
6.614633675587243
 30
0.0
 11
30.6937615361413
 21
6.977276216025928
 31
0.0
  0
LINE
  5
2D3
330
E8
100
AcDbEntity
  8
0
  6
Continuous
 62
     1
100
AcDbLine
 10
30.6937615361413
 20
6.977276216025928
 30
0.0
 11
31.0735798228325
 21
7.352596744011691
 31
0.0
  0
LINE
  5
2D4
330
E8
100
AcDbEntity
  8
0
  6
Continuous
 62
     1
100
AcDbLine
 10
31.0735798228325
 20
7.352596744011691
 30
0.0
 11
31.41414080984256
 21
7.740115860302183
 31
0.0
  0
LINE
  5
2D5
330
E8
100
AcDbEntity
  8
0
  6
Continuous
 62
     1
100
AcDbLine
 10
31.41414080984256
 20
7.740115860302183
 30
0.0
 11
31.71405853148738
 21
8.139302477707162
 31
0.0
  0
LINE
  5
2D6
330
E8
100
AcDbEntity
  8
0
  6
Continuous
 62
     1
100
AcDbLine
 10
31.71405853148738
 20
8.139302477707162
 30
0.0
 11
31.97185722784576
 21
8.549505094442736
 31
0.0
  0
LINE
  5
2D7
330
E8
100
AcDbEntity
  8
0
  6
Continuous
 62
     1
100
AcDbLine
 10
31.97185722784576
 20
8.549505094442736
 30
0.0
 11
32.18597044787569
 21
8.969856297881364
 31
0.0
  0
LINE
  5
2D8
330
E8
100
AcDbEntity
  8
0
  6
Continuous
 62
     1
100
AcDbLine
 10
32.18597044787569
 20
8.969856297881364
 30
0.0
 11
32.35478528083135
 21
9.399161580508178
 31
0.0
  0
LINE
  5
2D9
330
E8
100
AcDbEntity
  8
0
  6
Continuous
 62
     1
100
AcDbLine
 10
32.35478528083135
 20
9.399161580508178
 30
0.0
 11
32.47674859528755
 21
9.83580072311554
 31
0.0
  0
LINE
  5
2DA
330
E8
100
AcDbEntity
  8
0
  6
Continuous
 62
     1
100
AcDbLine
 10
32.47674859528755
 20
9.83580072311554
 30
0.0
 11
32.55053399093714
 21
10.2776852649402
 31
0.0
  0
LINE
  5
2DB
330
E8
100
AcDbEntity
  8
0
  6
Continuous
 62
     1
100
AcDbLine
 10
32.55053399093714
 20
10.2776852649402
 30
0.0
 11
32.57523663125571
 21
10.72231454833354
 31
0.0
  0
LINE
  5
2DC
330
E8
100
AcDbEntity
  8
0
  6
Continuous
 62
     1
100
AcDbLine
 10
32.57523663125571
 20
10.72231454833354
 30
0.0
 11
32.55053399093717
 21
11.16694383172614
 31
0.0
  0
LINE
  5
2DD
330
E8
100
AcDbEntity
  8
0
  6
Continuous
 62
     1
100
AcDbLine
 10
32.55053399093717
 20
11.16694383172614
 30
0.0
 11
32.47674859528755
 21
11.60882837355149
 31
0.0
  0
LINE
  5
2DE
330
E8
100
AcDbEntity
  8
0
  6
Continuous
 62
     1
100
AcDbLine
 10
32.47674859528755
 20
11.60882837355149
 30
0.0
 11
32.35478528083138
 21
12.04546751615823
 31
0.0
  0
LINE
  5
2DF
330
E8
100
AcDbEntity
  8
0
  6
Continuous
 62
     1
100
AcDbLine
 10
32.35478528083138
 20
12.04546751615823
 30
0.0
 11
32.18597044787566
 21
12.47477279878521
 31
0.0
  0
LINE
  5
2E0
330
E8
100
AcDbEntity
  8
0
  6
Continuous
 62
     1
100
AcDbLine
 10
32.18597044787566
 20
12.47477279878521
 30
0.0
 11
31.97185722784573
 21
12.89512400222381
 31
0.0
  0
LINE
  5
2E1
330
E8
100
AcDbEntity
  8
0
  6
Continuous
 62
     1
100
AcDbLine
 10
31.97185722784573
 20
12.89512400222381
 30
0.0
 11
31.71405853148741
 21
13.30532661895933
 31
0.0
  0
LINE
  5
2E2
330
E8
100
AcDbEntity
  8
0
  6
Continuous
 62
     1
100
AcDbLine
 10
31.71405853148741
 20
13.30532661895933
 30
0.0
 11
31.41414080984265
 21
13.7045132363647
 31
0.0
  0
LINE
  5
2E3
330
E8
100
AcDbEntity
  8
0
  6
Continuous
 62
     1
100
AcDbLine
 10
31.41414080984265
 20
13.7045132363647
 30
0.0
 11
31.07357982283247
 21
14.09203235265534
 31
0.0
  0
LINE
  5
2E4
330
E8
100
AcDbEntity
  8
0
  6
Continuous
 62
     1
100
AcDbLine
 10
31.07357982283247
 20
14.09203235265534
 30
0.0
 11
30.69376153614101
 21
14.46735288064087
 31
0.0
  0
LINE
  5
2E5
330
E8
100
AcDbEntity
  8
0
  6
Continuous
 62
     1
100
AcDbLine
 10
30.69376153614101
 20
14.46735288064087
 30
0.0
 11
30.27600755726584
 21
14.82999542107905
 31
0.0
  0
LINE
  5
2E6
330
E8
100
AcDbEntity
  8
0
  6
Continuous
 62
     1
100
AcDbLine
 10
30.27600755726584
 20
14.82999542107905
 30
0.0
 11
29.82160896069692
 21
15.17948981683088
 31
0.0
  0
LINE
  5
2E7
330
E8
100
AcDbEntity
  8
0
  6
Continuous
 62
     1
100
AcDbLine
 10
29.82160896069692
 20
15.17948981683088
 30
0.0
 11
29.33185880044479
 21
15.51535332882085
 31
0.0
  0
LINE
  5
2E8
330
E8
100
AcDbEntity
  8
0
  6
Continuous
 62
     1
100
AcDbLine
 10
29.33185880044479
 20
15.51535332882085
 30
0.0
 11
28.8080788671455
 21
15.83708286487746
 31
0.0
  0
LINE
  5
2E9
330
E8
100
AcDbEntity
  8
0
  6
Continuous
 62
     1
100
AcDbLine
 10
28.8080788671455
 20
15.83708286487746
 30
0.0
 11
28.25163953128705
 21
16.14415575239593
 31
0.0
  0
LINE
  5
2EA
330
E8
100
AcDbEntity
  8
0
  6
Continuous
 62
     1
100
AcDbLine
 10
28.25163953128705
 20
16.14415575239593
 30
0.0
 11
27.6639731683201
 21
16.43603511312546
 31
0.0
  0
LINE
  5
2EB
330
E8
100
AcDbEntity
  8
0
  6
Continuous
 62
     1
100
AcDbLine
 10
27.6639731683201
 20
16.43603511312546
 30
0.0
 11
27.04658228477467
 21
16.71217729939798
 31
0.0
  0
LINE
  5
2EC
330
E8
100
AcDbEntity
  8
0
  6
Continuous
 62
     1
100
AcDbLine
 10
27.04658228477467
 20
16.71217729939798
 30
0.0
 11
26.4010435470444
 21
16.97203988736237
 31
0.0
  0
LINE
  5
2ED
330
E8
100
AcDbEntity
  8
0
  6
Continuous
 62
     1
100
AcDbLine
 10
26.4010435470444
 20
16.97203988736237
 30
0.0
 11
25.72900876520561
 21
17.21508941094288
 31
0.0
  0
LINE
  5
2EE
330
E8
100
AcDbEntity
  8
0
  6
Continuous
 62
     1
100
AcDbLine
 10
25.72900876520561
 20
17.21508941094288
 30
0.0
 11
25.03220366829126
 21
17.44080844361827
 31
0.0
  0
LINE
  5
2EF
330
E8
100
AcDbEntity
  8
0
  6
Continuous
 62
     1
100
AcDbLine
 10
25.03220366829126
 20
17.44080844361827
 30
0.0
 11
24.31242510020132
 21
17.64870187913482
 31
0.0
  0
LINE
  5
2F0
330
E8
100
AcDbEntity
  8
0
  6
Continuous
 62
     1
100
AcDbLine
 10
24.31242510020132
 20
17.64870187913482
 30
0.0
 11
23.57153709382277
 21
17.83830239331786
 31
0.0
  0
LINE
  5
2F1
330
E8
100
AcDbEntity
  8
0
  6
Continuous
 62
     1
100
AcDbLine
 10
23.57153709382277
 20
17.83830239331786
 30
0.0
 11
22.81146614936259
 21
18.00917513291589
 31
0.0
  0
LINE
  5
2F2
330
E8
100
AcDbEntity
  8
0
  6
Continuous
 62
     1
100
AcDbLine
 10
22.81146614936259
 20
18.00917513291589
 30
0.0
 11
22.0341959463529
 21
18.1609217030686
 31
0.0
  0
LINE
  5
2F3
330
E8
100
AcDbEntity
  8
0
  6
Continuous
 62
     1
100
AcDbLine
 10
22.0341959463529
 20
18.1609217030686
 30
0.0
 11
21.24176165001356
 21
18.29318353027492
 31
0.0
  0
LINE
  5
2F4
330
E8
100
AcDbEntity
  8
0
  6
Continuous
 62
     1
100
AcDbLine
 10
21.24176165001356
 20
18.29318353027492
 30
0.0
 11
20.43624392467694
 21
18.40564467289883
 31
0.0
  0
LINE
  5
2F5
330
E8
100
AcDbEntity
  8
0
  6
Continuous
 62
     1
100
AcDbLine
 10
20.43624392467694
 20
18.40564467289883
 30
0.0
 11
19.61976273385051
 21
18.49803414209086
 31
0.0
  0
LINE
  5
2F6
330
E8
100
AcDbEntity
  8
0
  6
Continuous
 62
     1
100
AcDbLine
 10
19.61976273385051
 20
18.49803414209086
 30
0.0
 11
18.79447098407789
 21
18.57012778552496
 31
0.0
  0
LINE
  5
2F7
330
E8
100
AcDbEntity
  8
0
  6
Continuous
 62
     1
100
AcDbLine
 10
18.79447098407789
 20
18.57012778552496
 30
0.0
 11
17.96254805450519
 21
18.62174977607825
 31
0.0
  0
LINE
  5
2F8
330
E8
100
AcDbEntity
  8
0
  6
Continuous
 62
     1
100
AcDbLine
 10
17.96254805450519
 20
18.62174977607825
 30
0.0
 11
17.12619324403548
 21
18.65277373810875
 31
0.0
  0
LINE
  5
2F9
330
E8
100
AcDbEntity
  8
0
  6
Continuous
 62
     1
100
AcDbLine
 10
17.12619324403548
 20
18.65277373810875
 30
0.0
 11
16.28761916131023
 21
18.66312353550978
 31
0.0
  0
LINE
  5
2FA
330
E8
100
AcDbEntity
  8
0
  6
Continuous
 62
     1
100
AcDbLine
 10
16.28761916131023
 20
18.66312353550978
 30
0.0
 11
15.44904507858499
 21
18.65277373810875
 31
0.0
  0
LINE
  5
2FB
330
E8
100
AcDbEntity
  8
0
  6
Continuous
 62
     1
100
AcDbLine
 10
15.44904507858499
 20
18.65277373810875
 30
0.0
 11
14.61269026811581
 21
18.62174977607825
 31
0.0
  0
LINE
  5
2FC
330
E8
100
AcDbEntity
  8
0
  6
Continuous
 62
     1
100
AcDbLine
 10
14.61269026811581
 20
18.62174977607825
 30
0.0
 11
13.78076733854257
 21
18.57012778552493
 31
0.0
  0
LINE
  5
2FD
330
E8
100
AcDbEntity
  8
0
  6
Continuous
 62
     1
100
AcDbLine
 10
13.78076733854257
 20
18.57012778552493
 30
0.0
 11
12.95547558876993
 21
18.49803414209089
 31
0.0
  0
LINE
  5
2FE
330
E8
100
AcDbEntity
  8
0
  6
Continuous
 62
     1
100
AcDbLine
 10
12.95547558876993
 20
18.49803414209089
 30
0.0
 11
12.13899439794341
 21
18.4056446728988
 31
0.0
  0
LINE
  5
2FF
330
E8
100
AcDbEntity
  8
0
  6
Continuous
 62
     1
100
AcDbLine
 10
12.13899439794341
 20
18.4056446728988
 30
0.0
 11
11.33347667260654
 21
18.29318353027489
 31
0.0
  0
LINE
  5
300
330
E8
100
AcDbEntity
  8
0
  6
Continuous
 62
     1
100
AcDbLine
 10
11.33347667260654
 20
18.29318353027489
 30
0.0
 11
10.54104237626834
 21
18.16092170306865
 31
0.0
  0
LINE
  5
301
330
E8
100
AcDbEntity
  8
0
  6
Continuous
 62
     1
100
AcDbLine
 10
10.54104237626834
 20
18.16092170306865
 30
0.0
 11
9.763772173258019
 21
18.00917513291591
 31
0.0
  0
LINE
  5
302
330
E8
100
AcDbEntity
  8
0
  6
Continuous
 62
     1
100
AcDbLine
 10
9.763772173258019
 20
18.00917513291591
 30
0.0
 11
9.003701228798036
 21
17.83830239331786
 31
0.0
  0
LINE
  5
303
330
E8
100
AcDbEntity
  8
0
  6
Continuous
 62
     1
100
AcDbLine
 10
9.003701228798036
 20
17.83830239331786
 30
0.0
 11
8.262813222418771
 21
17.64870187913471
 31
0.0
  0
LINE
  5
304
330
E8
100
AcDbEntity
  8
0
  6
Continuous
 62
     1
100
AcDbLine
 10
8.262813222418771
 20
17.64870187913471
 30
0.0
 11
7.543034654329347
 21
17.44080844361815
 31
0.0
  0
LINE
  5
305
330
E8
100
AcDbEntity
  8
0
  6
Continuous
 62
     1
100
AcDbLine
 10
7.543034654329347
 20
17.44080844361815
 30
0.0
 11
6.846229557415455
 21
17.21508941094311
 31
0.0
  0
LINE
  5
306
330
E8
100
AcDbEntity
  8
0
  6
Continuous
 62
     1
100
AcDbLine
 10
6.846229557415455
 20
17.21508941094311
 30
0.0
 11
6.174194775575899
 21
16.97203988736231
 31
0.0
  0
LINE
  5
307
330
E8
100
AcDbEntity
  8
0
  6
Continuous
 62
     1
100
AcDbLine
 10
6.174194775575899
 20
16.97203988736231
 30
0.0
 11
5.528656037845707
 21
16.71217729939795
 31
0.0
  0
LINE
  5
308
330
E8
100
AcDbEntity
  8
0
  6
Continuous
 62
     1
100
AcDbLine
 10
5.528656037845707
 20
16.71217729939795
 30
0.0
 11
4.911265154300793
 21
16.43603511312566
 31
0.0
  0
LINE
  5
309
330
E8
100
AcDbEntity
  8
0
  6
Continuous
 62
     1
100
AcDbLine
 10
4.911265154300793
 20
16.43603511312566
 30
0.0
 11
4.323598791333183
 21
16.14415575239582
 31
0.0
  0
LINE
  5
30A
330
E8
100
AcDbEntity
  8
0
  6
Continuous
 62
     1
100
AcDbLine
 10
4.323598791333183
 20
16.14415575239582
 30
0.0
 11
3.76715945547528
 21
15.83708286487766
 31
0.0
  0
LINE
  5
30B
330
E8
100
AcDbEntity
  8
0
  6
Continuous
 62
     1
100
AcDbLine
 10
3.76715945547528
 20
15.83708286487766
 30
0.0
 11
3.243379522175331
 21
15.51535332882062
 31
0.0
  0
LINE
  5
30C
330
E8
100
AcDbEntity
  8
0
  6
Continuous
 62
     1
100
AcDbLine
 10
3.243379522175331
 20
15.51535332882062
 30
0.0
 11
2.753629361923572
 21
15.17948981683094
 31
0.0
  0
LINE
  5
30D
330
E8
100
AcDbEntity
  8
0
  6
Continuous
 62
     1
100
AcDbLine
 10
2.753629361923572
 20
15.17948981683094
 30
0.0
 11
2.299230765354935
 21
14.82999542107933
 31
0.0
  0
LINE
  5
30E
330
E8
100
AcDbEntity
  8
0
  6
Continuous
 62
     1
100
AcDbLine
 10
2.299230765354935
 20
14.82999542107933
 30
0.0
 11
1.881476786478999
 21
14.46735288064048
 31
0.0
  0
LINE
  5
30F
330
E8
100
AcDbEntity
  8
0
  6
Continuous
 62
     1
100
AcDbLine
 10
1.881476786478999
 20
14.46735288064048
 30
0.0
 11
1.501658499787993
 21
14.09203235265534
 31
0.0
  0
LINE
  5
310
330
E8
100
AcDbEntity
  8
0
  6
Continuous
 62
     1
100
AcDbLine
 10
1.501658499787993
 20
14.09203235265534
 30
0.0
 11
1.161097512777815
 21
13.7045132363647
 31
0.0
  0
LINE
  5
311
330
E8
100
AcDbEntity
  8
0
  6
Continuous
 62
     1
100
AcDbLine
 10
1.161097512777815
 20
13.7045132363647
 30
0.0
 11
0.8611797911330541
 21
13.3053266189593
 31
0.0
  0
LINE
  5
312
330
E8
100
AcDbEntity
  8
0
  6
Continuous
 62
     1
100
AcDbLine
 10
0.8611797911330541
 20
13.3053266189593
 30
0.0
 11
0.6033810947748748
 21
12.89512400222407
 31
0.0
  0
LINE
  5
313
330
E8
100
AcDbEntity
  8
0
  6
Continuous
 62
     1
100
AcDbLine
 10
0.6033810947748748
 20
12.89512400222407
 30
0.0
 11
0.3892678747449452
 21
12.47477279878547
 31
0.0
  0
LINE
  5
314
330
E8
100
AcDbEntity
  8
0
  6
Continuous
 62
     1
100
AcDbLine
 10
0.3892678747449452
 20
12.47477279878547
 30
0.0
 11
0.2204530417890851
 21
12.04546751615825
 31
0.0
  0
LINE
  5
315
330
E8
100
AcDbEntity
  8
0
  6
Continuous
 62
     1
100
AcDbLine
 10
0.2204530417890851
 20
12.04546751615825
 30
0.0
 11
0.0984897273329182
 21
11.60882837355155
 31
0.0
  0
LINE
  5
316
330
E8
100
AcDbEntity
  8
0
  6
Continuous
 62
     1
100
AcDbLine
 10
0.0984897273329182
 20
11.60882837355155
 30
0.0
 11
0.0247043316832674
 21
11.16694383172592
 31
0.0
  0
LINE
  5
317
330
E8
100
AcDbEntity
  8
0
  6
Continuous
 62
     1
100
AcDbLine
 10
0.0247043316832674
 20
11.16694383172592
 30
0.0
 11
0.0000016913647016
 21
10.72231454833292
 31
0.0
  0
LINE
  5
318
330
E8
100
AcDbEntity
  8
0
  6
Continuous
 62
     1
100
AcDbLine
 10
0.0000016913647016
 20
10.72231454833292
 30
0.0
 11
0.0247043316832958
 21
10.2776852649404
 31
0.0
  0
LINE
  5
319
330
E8
100
AcDbEntity
  8
0
  6
Continuous
 62
     1
100
AcDbLine
 10
0.0247043316832958
 20
10.2776852649404
 30
0.0
 11
0.0984897273328613
 21
9.835800723115653
 31
0.0
  0
LINE
  5
31A
330
E8
100
AcDbEntity
  8
0
  6
Continuous
 62
     1
100
AcDbLine
 10
0.0984897273328613
 20
9.835800723115653
 30
0.0
 11
0.2204530417890567
 21
9.399161580508348
 31
0.0
  0
LINE
  5
31B
330
E8
100
AcDbEntity
  8
0
  6
Continuous
 62
     1
100
AcDbLine
 10
0.2204530417890567
 20
9.399161580508348
 30
0.0
 11
0.3892678747449452
 21
8.969856297880995
 31
0.0
  0
LINE
  5
31C
330
E8
100
AcDbEntity
  8
0
  6
Continuous
 62
     1
100
AcDbLine
 10
0.3892678747449452
 20
8.969856297880995
 30
0.0
 11
0.6033810947745337
 21
8.549505094443077
 31
0.0
  0
LINE
  5
31D
330
E8
100
AcDbEntity
  8
0
  6
Continuous
 62
     1
100
AcDbLine
 10
0.6033810947745337
 20
8.549505094443077
 30
0.0
 11
0.8611797911329688
 21
8.13930247770736
 31
0.0
  0
LINE
  5
31E
330
E8
100
AcDbEntity
  8
0
  6
Continuous
 62
     1
100
AcDbLine
 10
0.8611797911329688
 20
8.13930247770736
 30
0.0
 11
1.161097512778014
 21
7.740115860302012
 31
0.0
  0
LINE
  5
31F
330
E8
100
AcDbEntity
  8
0
  6
Continuous
 62
     1
100
AcDbLine
 10
1.161097512778014
 20
7.740115860302012
 30
0.0
 11
1.501658499787993
 21
7.352596744011635
 31
0.0
  0
LINE
  5
320
330
E8
100
AcDbEntity
  8
0
  6
Continuous
 62
     1
100
AcDbLine
 10
1.501658499787993
 20
7.352596744011635
 30
0.0
 11
1.881476786479652
 21
6.977276216025871
 31
0.0
  0
LINE
  5
321
330
E8
100
AcDbEntity
  8
0
  6
Continuous
 62
     1
100
AcDbLine
 10
1.881476786479652
 20
6.977276216025871
 30
0.0
 11
2.299230765354764
 21
6.614633675587299
 31
0.0
  0
LINE
  5
322
330
E8
100
AcDbEntity
  8
0
  6
Continuous
 62
     1
100
AcDbLine
 10
2.299230765354764
 20
6.614633675587299
 30
0.0
 11
2.753629361923515
 21
6.26513927983612
 31
0.0
  0
LINE
  5
323
330
E8
100
AcDbEntity
  8
0
  6
Continuous
 62
     1
100
AcDbLine
 10
2.753629361923515
 20
6.26513927983612
 30
0.0
 11
3.243379522175672
 21
5.92927576784615
 31
0.0
  0
LINE
  5
324
330
E8
100
AcDbEntity
  8
0
  6
Continuous
 62
     1
100
AcDbLine
 10
3.243379522175672
 20
5.92927576784615
 30
0.0
 11
3.767159455475053
 21
5.607546231789001
 31
0.0
  0
LINE
  5
325
330
E8
100
AcDbEntity
  8
0
  6
Continuous
 62
     1
100
AcDbLine
 10
3.767159455475053
 20
5.607546231789001
 30
0.0
 11
4.323598791333978
 21
5.300473344270983
 31
0.0
  0
LINE
  5
326
330
E8
100
AcDbEntity
  8
0
  6
Continuous
 62
     1
100
AcDbLine
 10
4.323598791333978
 20
5.300473344270983
 30
0.0
 11
4.911265154300139
 21
5.008593983541175
 31
0.0
  0
LINE
  5
327
330
E8
100
AcDbEntity
  8
0
  6
Continuous
 62
     1
100
AcDbLine
 10
4.911265154300139
 20
5.008593983541175
 30
0.0
 11
5.52865603784582
 21
4.732451797268538
 31
0.0
  0
LINE
  5
328
330
E8
100
AcDbEntity
  8
0
  6
Continuous
 62
     1
100
AcDbLine
 10
5.52865603784582
 20
4.732451797268538
 30
0.0
 11
6.174194775575813
 21
4.472589209304203
 31
0.0
  0
LINE
  5
329
330
E8
100
AcDbEntity
  8
0
  6
Continuous
 62
     1
100
AcDbLine
 10
6.174194775575813
 20
4.472589209304203
 30
0.0
 11
6.846229557415171
 21
4.229539685723978
 31
0.0
  0
LINE
  5
32A
330
E8
100
AcDbEntity
  8
0
  6
Continuous
 62
     1
100
AcDbLine
 10
6.846229557415171
 20
4.229539685723978
 30
0.0
 11
7.543034654329091
 21
4.003820653048422
 31
0.0
  0
LINE
  5
32B
330
E8
100
AcDbEntity
  8
0
  6
Continuous
 62
     1
100
AcDbLine
 10
7.543034654329091
 20
4.003820653048422
 30
0.0
 11
8.262813222419226
 21
3.795927217531812
 31
0.0
  0
LINE
  5
32C
330
E8
100
AcDbEntity
  8
0
  6
Continuous
 62
     1
100
AcDbLine
 10
8.262813222419226
 20
3.795927217531812
 30
0.0
 11
9.00370122879869
 21
3.606326703348515
 31
0.0
  0
LINE
  5
32D
330
E8
100
AcDbEntity
  8
0
  6
Continuous
 62
     1
100
AcDbLine
 10
9.00370122879869
 20
3.606326703348515
 30
0.0
 11
9.763772173257905
 21
3.435453963751087
 31
0.0
  0
LINE
  5
32E
330
E8
100
AcDbEntity
  8
0
  6
Continuous
 62
     1
100
AcDbLine
 10
9.763772173257905
 20
3.435453963751087
 30
0.0
 11
10.5410423762678
 21
3.283707393598434
 31
0.0
  0
LINE
  5
32F
330
E8
100
AcDbEntity
  8
0
  6
Continuous
 62
     1
100
AcDbLine
 10
10.5410423762678
 20
3.283707393598434
 30
0.0
 11
11.33347667260682
 21
3.151445566391601
 31
0.0
  0
LINE
  5
330
330
E8
100
AcDbEntity
  8
0
  6
Continuous
 62
     9
100
AcDbLine
 10
196.6714935923772
 20
0.0000072407879657
 30
0.0
 11
196.6714935923772
 21
278.0594585255471
 31
0.0
  0
ENDBLK
  5
EA
330
E8
100
AcDbEntity
  8
0
100
AcDbBlockEnd
  0
BLOCK
  5
332
330
331
100
AcDbEntity
  8
0
100
AcDbBlockBegin
  2
GEN_BLOCK00006
 70
     0
 10
0.0
 20
0.0
 30
0.0
  3
GEN_BLOCK00006
  1
GEN_BLOCK00006
  0
LINE
  5
335
330
331
100
AcDbEntity
  8
1
  6
Continuous
 62
     3
100
AcDbLine
 10
33.00000240869647
 20
0.4999988552586316
 30
0.0
 11
32.00000240869647
 21
1.499998855258632
 31
0.0
  0
LINE
  5
336
330
331
100
AcDbEntity
  8
1
  6
Continuous
 62
     3
100
AcDbLine
 10
32.00000240869647
 20
1.499998855258632
 30
0.0
 11
34.25000240869647
 21
3.749998855258632
 31
0.0
  0
LINE
  5
337
330
331
100
AcDbEntity
  8
1
  6
Continuous
 62
     3
100
AcDbLine
 10
34.95000240869647
 20
4.449998855258634
 30
0.0
 11
36.60000240869646
 21
6.099998855258633
 31
0.0
  0
LINE
  5
338
330
331
100
AcDbEntity
  8
1
  6
Continuous
 62
     3
100
AcDbLine
 10
36.60000240869646
 20
6.099998855258633
 30
0.0
 11
38.95959420292301
 21
6.099998855258633
 31
0.0
  0
ARC
  5
339
330
331
100
AcDbEntity
  8
1
  6
Continuous
 62
     3
100
AcDbCircle
 10
37.00000240869647
 20
4.099998855258633
 30
0.0
 40
2.8
100
AcDbArc
 50
315.584691402807
 51
45.58469140280702
  0
ARC
  5
33A
330
331
100
AcDbEntity
  8
1
  6
Continuous
 62
     3
100
AcDbCircle
 10
37.00000240869647
 20
4.099998855258633
 30
0.0
 40
2.8
100
AcDbArc
 50
315.584691402807
 51
45.58469140280702
  0
LINE
  5
33B
330
331
100
AcDbEntity
  8
1
  6
Continuous
 62
     3
100
AcDbLine
 10
39.00000240869647
 20
2.140407061032093
 30
0.0
 11
39.00000240869647
 21
0.9999988552586316
 31
0.0
  0
LINE
  5
33C
330
331
100
AcDbEntity
  8
1
  6
Continuous
 62
     3
100
AcDbLine
 10
34.25000240869647
 20
3.749998855258632
 30
0.0
 11
37.00000240869647
 21
3.749998855258632
 31
0.0
  0
ARC
  5
33D
330
331
100
AcDbEntity
  8
1
  6
Continuous
 62
     3
100
AcDbCircle
 10
37.00000240869647
 20
4.099998855258633
 30
0.0
 40
0.35
100
AcDbArc
 50
270.0
 51
90.0
  0
ARC
  5
33E
330
331
100
AcDbEntity
  8
1
  6
Continuous
 62
     3
100
AcDbCircle
 10
37.00000240869647
 20
4.099998855258633
 30
0.0
 40
0.35
100
AcDbArc
 50
270.0
 51
90.0
  0
LINE
  5
33F
330
331
100
AcDbEntity
  8
1
  6
Continuous
 62
     3
100
AcDbLine
 10
37.00000240869647
 20
4.449998855258634
 30
0.0
 11
34.95000240869647
 21
4.449998855258634
 31
0.0
  0
LINE
  5
340
330
331
100
AcDbEntity
  8
1
  6
Continuous
 62
     3
100
AcDbLine
 10
44.47000840689707
 20
6.470598735294622
 30
0.0
 11
44.98031451914401
 21
5.960292623047678
 31
0.0
  0
LINE
  5
341
330
331
100
AcDbEntity
  8
1
  6
Continuous
 62
     3
100
AcDbLine
 10
44.98031451914401
 20
5.960292623047678
 30
0.0
 11
45.4706086269891
 21
6.45058673089278
 31
0.0
  0
LINE
  5
342
330
331
100
AcDbEntity
  8
1
  6
Continuous
 62
     3
100
AcDbLine
 10
93.00000240869653
 20
5.499998855258625
 30
0.0
 11
90.49761853113037
 21
5.550046532809944
 31
0.0
  0
LINE
  5
343
330
331
100
AcDbEntity
  8
1
  6
Continuous
 62
     3
100
AcDbLine
 10
43.00000240869647
 20
7.970298825264628
 30
0.0
 11
43.00000240869647
 21
7.970298825264628
 31
0.0
  0
ARC
  5
344
330
331
100
AcDbEntity
  8
1
  6
Continuous
 62
     3
100
AcDbCircle
 10
44.50000240869647
 20
7.970298825264628
 30
0.0
 40
1.5
100
AcDbArc
 50
180.0
 51
268.8542371618249
  0
ARC
  5
345
330
331
100
AcDbEntity
  8
1
  6
Continuous
 62
     3
100
AcDbCircle
 10
44.50000240869647
 20
7.970298825264628
 30
0.0
 40
1.5
100
AcDbArc
 50
180.0
 51
268.8542371618249
  0
LINE
  5
346
330
331
100
AcDbEntity
  8
1
  6
Continuous
 62
     3
100
AcDbLine
 10
49.4834538913578
 20
3.368683742110314
 30
0.0
 11
90.50000240869647
 21
2.499998855258632
 31
0.0
  0
LINE
  5
347
330
331
100
AcDbEntity
  8
1
  6
Continuous
 62
     3
100
AcDbLine
 10
61.4802121484616
 20
6.130394660463374
 30
0.0
 11
61.99051826070853
 21
5.620088548216437
 31
0.0
  0
LINE
  5
348
330
331
100
AcDbEntity
  8
1
  6
Continuous
 62
     3
100
AcDbLine
 10
61.99051826070853
 20
5.620088548216437
 30
0.0
 11
62.48081236855364
 21
6.110382656061532
 31
0.0
  0
LINE
  5
349
330
331
100
AcDbEntity
  8
1
  6
Continuous
 62
     3
100
AcDbLine
 10
3.000002408696467
 20
1.198426287424809
 30
0.0
 11
3.000002408696467
 21
0.4999988552586316
 31
0.0
  0
LINE
  5
34A
330
331
100
AcDbEntity
  8
1
  6
Continuous
 62
     3
100
AcDbLine
 10
2.500002408696467
 20
-0.0000011447413684
 30
0.0
 11
0.5000024086964743
 21
-0.0000011447413684
 31
0.0
  0
LINE
  5
34B
330
331
100
AcDbEntity
  8
1
  6
Continuous
 62
     3
100
AcDbLine
 10
0.0000024086964743
 20
0.4999988552586316
 30
0.0
 11
0.0000024086964743
 21
3.176951613068731
 31
0.0
  0
ARC
  5
34C
330
331
100
AcDbEntity
  8
1
  6
Continuous
 62
     3
100
AcDbCircle
 10
37.13707263185949
 20
-78.4807184826609
 30
0.0
 40
90.0
100
AcDbArc
 50
88.81393736297146
 51
114.164181420167
  0
ARC
  5
34D
330
331
100
AcDbEntity
  8
1
  6
Continuous
 62
     3
100
AcDbCircle
 10
37.13707263185949
 20
-78.4807184826609
 30
0.0
 40
90.0
100
AcDbArc
 50
88.81393736297146
 51
114.164181420167
  0
LINE
  5
34E
330
331
100
AcDbEntity
  8
1
  6
Continuous
 62
     3
100
AcDbLine
 10
39.00000240869647
 20
11.49999885525863
 30
0.0
 11
39.00000240869647
 21
11.99999885525863
 31
0.0
  0
LINE
  5
34F
330
331
100
AcDbEntity
  8
1
  6
Continuous
 62
     3
100
AcDbLine
 10
39.50000240869647
 20
12.49999885525863
 30
0.0
 11
42.50000240869647
 21
12.49999885525863
 31
0.0
  0
LINE
  5
350
330
331
100
AcDbEntity
  8
1
  6
Continuous
 62
     3
100
AcDbLine
 10
3.320931559744416
 20
1.665259909881023
 30
0.0
 11
8.601386645798236
 21
3.690768634247959
 31
0.0
  0
LINE
  5
351
330
331
100
AcDbEntity
  8
1
  6
Continuous
 62
     3
100
AcDbLine
 10
9.213470196642497
 20
3.473935011791745
 30
0.0
 11
10.93047303716966
 21
0.4999988552586316
 31
0.0
  0
LINE
  5
352
330
331
100
AcDbEntity
  8
1
  6
Continuous
 62
     3
100
AcDbLine
 10
10.93047303716966
 20
0.4999988552586316
 30
0.0
 11
12.66252384473854
 21
0.4999988552586316
 31
0.0
  0
LINE
  5
353
330
331
100
AcDbEntity
  8
1
  6
Continuous
 62
     3
100
AcDbLine
 10
12.66252384473854
 20
0.4999988552586316
 30
0.0
 11
10.76409324863231
 21
3.788177102357885
 31
0.0
  0
ARC
  5
354
330
331
100
AcDbEntity
  8
1
  6
Continuous
 62
     3
100
AcDbCircle
 10
37.13707263185949
 20
-78.4807184826609
 30
0.0
 40
87.0
100
AcDbArc
 50
90.96613333159934
 51
107.4506365035571
  0
ARC
  5
355
330
331
100
AcDbEntity
  8
1
  6
Continuous
 62
     3
100
AcDbCircle
 10
37.13707263185949
 20
-78.4807184826609
 30
0.0
 40
87.0
100
AcDbArc
 50
90.96613333159934
 51
107.4506365035571
  0
LINE
  5
356
330
331
100
AcDbEntity
  8
1
  6
Continuous
 62
     3
100
AcDbLine
 10
43.00000240869647
 20
11.99999885525863
 30
0.0
 11
43.00000240869647
 21
7.970298825264628
 31
0.0
  0
LINE
  5
357
330
331
100
AcDbEntity
  8
1
  6
Continuous
 62
     3
100
AcDbLine
 10
93.00000240869647
 20
5.499998855258632
 30
0.0
 11
125.6602206890062
 21
1.99141767727162
 31
0.0
  0
ARC
  5
358
330
331
100
AcDbEntity
  8
1
  6
Continuous
 62
     3
100
AcDbCircle
 10
125.5000024086965
 20
0.4999988552586316
 30
0.0
 40
1.5
100
AcDbArc
 50
0.0
 51
83.8684155333617
  0
ARC
  5
359
330
331
100
AcDbEntity
  8
1
  6
Continuous
 62
     3
100
AcDbCircle
 10
125.5000024086965
 20
0.4999988552586316
 30
0.0
 40
1.5
100
AcDbArc
 50
0.0
 51
83.8684155333617
  0
LINE
  5
35A
330
331
100
AcDbEntity
  8
1
  6
Continuous
 62
     3
100
AcDbLine
 10
122.0000024086965
 20
0.4999988552586316
 30
0.0
 11
127.0000024086965
 21
0.4999988552586316
 31
0.0
  0
LINE
  5
35B
330
331
100
AcDbEntity
  8
1
  6
Continuous
 62
     3
100
AcDbLine
 10
116.0000024086965
 20
0.4999988552586316
 30
0.0
 11
111.4566610643076
 21
0.4999988552586316
 31
0.0
  0
LINE
  5
35C
330
331
100
AcDbEntity
  8
1
  6
Continuous
 62
     3
100
AcDbLine
 10
111.4566610643076
 20
0.4999988552586316
 30
0.0
 11
93.55340850213304
 21
2.42328713292035
 31
0.0
  0
LINE
  5
35D
330
331
100
AcDbEntity
  8
1
  6
Continuous
 62
     3
100
AcDbLine
 10
93.00000240869647
 20
1.926147525582685
 30
0.0
 11
93.00000240869647
 21
0.9999988552586316
 31
0.0
  0
LINE
  5
35E
330
331
100
AcDbEntity
  8
1
  6
Continuous
 62
     3
100
AcDbLine
 10
92.50000240869647
 20
0.4999988552586316
 30
0.0
 11
91.50000240869647
 21
0.4999988552586316
 31
0.0
  0
LINE
  5
35F
330
331
100
AcDbEntity
  8
1
  6
Continuous
 62
     3
100
AcDbLine
 10
91.00000240869647
 20
0.9999988552586316
 30
0.0
 11
91.00000240869647
 21
1.999998855258632
 31
0.0
  0
ARC
  5
360
330
331
100
AcDbEntity
  8
1
  6
Continuous
 62
     3
100
AcDbCircle
 10
90.50000240869647
 20
1.999998855258632
 30
0.0
 40
0.5
100
AcDbArc
 50
0.0
 51
90.0
  0
ARC
  5
361
330
331
100
AcDbEntity
  8
1
  6
Continuous
 62
     3
100
AcDbCircle
 10
90.50000240869647
 20
1.999998855258632
 30
0.0
 40
0.5
100
AcDbArc
 50
0.0
 51
90.0
  0
ARC
  5
362
330
331
100
AcDbEntity
  8
1
  6
Continuous
 62
     3
100
AcDbCircle
 10
93.50000240869647
 20
1.926147525582685
 30
0.0
 40
0.5
100
AcDbArc
 50
83.8684155333617
 51
180.0
  0
ARC
  5
363
330
331
100
AcDbEntity
  8
1
  6
Continuous
 62
     3
100
AcDbCircle
 10
93.50000240869647
 20
1.926147525582685
 30
0.0
 40
0.5
100
AcDbArc
 50
83.8684155333617
 51
180.0
  0
ARC
  5
364
330
331
100
AcDbEntity
  8
1
  6
Continuous
 62
     3
100
AcDbCircle
 10
91.50000240869647
 20
0.9999988552586316
 30
0.0
 40
0.5
100
AcDbArc
 50
180.0
 51
270.0
  0
ARC
  5
365
330
331
100
AcDbEntity
  8
1
  6
Continuous
 62
     3
100
AcDbCircle
 10
91.50000240869647
 20
0.9999988552586316
 30
0.0
 40
0.5
100
AcDbArc
 50
180.0
 51
270.0
  0
ARC
  5
366
330
331
100
AcDbEntity
  8
1
  6
Continuous
 62
     3
100
AcDbCircle
 10
92.50000240869647
 20
0.9999988552586316
 30
0.0
 40
0.5
100
AcDbArc
 50
270.0
 51
0.0
  0
ARC
  5
367
330
331
100
AcDbEntity
  8
1
  6
Continuous
 62
     3
100
AcDbCircle
 10
92.50000240869647
 20
0.9999988552586316
 30
0.0
 40
0.5
100
AcDbArc
 50
270.0
 51
0.0
  0
ARC
  5
368
330
331
100
AcDbEntity
  8
1
  6
Continuous
 62
     3
100
AcDbCircle
 10
42.50000240869647
 20
11.99999885525863
 30
0.0
 40
0.5
100
AcDbArc
 50
0.0
 51
90.0
  0
ARC
  5
369
330
331
100
AcDbEntity
  8
1
  6
Continuous
 62
     3
100
AcDbCircle
 10
42.50000240869647
 20
11.99999885525863
 30
0.0
 40
0.5
100
AcDbArc
 50
0.0
 51
90.0
  0
ARC
  5
36A
330
331
100
AcDbEntity
  8
1
  6
Continuous
 62
     3
100
AcDbCircle
 10
0.5000024086964743
 20
0.4999988552586316
 30
0.0
 40
0.5
100
AcDbArc
 50
180.0
 51
270.0
  0
ARC
  5
36B
330
331
100
AcDbEntity
  8
1
  6
Continuous
 62
     3
100
AcDbCircle
 10
0.5000024086964743
 20
0.4999988552586316
 30
0.0
 40
0.5
100
AcDbArc
 50
180.0
 51
270.0
  0
ARC
  5
36C
330
331
100
AcDbEntity
  8
1
  6
Continuous
 62
     3
100
AcDbCircle
 10
0.5000024086964743
 20
3.176951613068731
 30
0.0
 40
0.5
100
AcDbArc
 50
114.1641814201668
 51
180.0
  0
ARC
  5
36D
330
331
100
AcDbEntity
  8
1
  6
Continuous
 62
     3
100
AcDbCircle
 10
0.5000024086964743
 20
3.176951613068731
 30
0.0
 40
0.5
100
AcDbArc
 50
114.1641814201668
 51
180.0
  0
ARC
  5
36E
330
331
100
AcDbEntity
  8
1
  6
Continuous
 62
     3
100
AcDbCircle
 10
2.500002408696467
 20
0.4999988552586316
 30
0.0
 40
0.5
100
AcDbArc
 50
270.0
 51
0.0
  0
ARC
  5
36F
330
331
100
AcDbEntity
  8
1
  6
Continuous
 62
     3
100
AcDbCircle
 10
2.500002408696467
 20
0.4999988552586316
 30
0.0
 40
0.5
100
AcDbArc
 50
270.0
 51
0.0
  0
ARC
  5
370
330
331
100
AcDbEntity
  8
1
  6
Continuous
 62
     3
100
AcDbCircle
 10
3.500002408696467
 20
1.198426287424809
 30
0.0
 40
0.5
100
AcDbArc
 50
110.9861151101884
 51
180.0
  0
ARC
  5
371
330
331
100
AcDbEntity
  8
1
  6
Continuous
 62
     3
100
AcDbCircle
 10
3.500002408696467
 20
1.198426287424809
 30
0.0
 40
0.5
100
AcDbArc
 50
110.9861151101884
 51
180.0
  0
ARC
  5
372
330
331
100
AcDbEntity
  8
1
  6
Continuous
 62
     3
100
AcDbCircle
 10
8.780457494750287
 20
3.223935011791745
 30
0.0
 40
0.5
100
AcDbArc
 50
30.00000000000014
 51
110.9861151101884
  0
ARC
  5
373
330
331
100
AcDbEntity
  8
1
  6
Continuous
 62
     3
100
AcDbCircle
 10
8.780457494750287
 20
3.223935011791745
 30
0.0
 40
0.5
100
AcDbArc
 50
30.00000000000014
 51
110.9861151101884
  0
ARC
  5
374
330
331
100
AcDbEntity
  8
1
  6
Continuous
 62
     3
100
AcDbCircle
 10
11.19710595052452
 20
4.038177102357885
 30
0.0
 40
0.5
100
AcDbArc
 50
107.4506365035568
 51
209.9999999999998
  0
ARC
  5
375
330
331
100
AcDbEntity
  8
1
  6
Continuous
 62
     3
100
AcDbCircle
 10
11.19710595052452
 20
4.038177102357885
 30
0.0
 40
0.5
100
AcDbArc
 50
107.4506365035568
 51
209.9999999999998
  0
ARC
  5
376
330
331
100
AcDbEntity
  8
1
  6
Continuous
 62
     3
100
AcDbCircle
 10
39.50000240869647
 20
11.99999885525863
 30
0.0
 40
0.5
100
AcDbArc
 50
90.0
 51
180.0
  0
ARC
  5
377
330
331
100
AcDbEntity
  8
1
  6
Continuous
 62
     3
100
AcDbCircle
 10
39.50000240869647
 20
11.99999885525863
 30
0.0
 40
0.5
100
AcDbArc
 50
90.0
 51
180.0
  0
LINE
  5
378
330
331
100
AcDbEntity
  8
1
  6
Continuous
 62
     3
100
AcDbLine
 10
45.4706086269891
 20
6.45058673089278
 30
0.0
 11
45.98091473923603
 21
5.940280618645843
 31
0.0
  0
LINE
  5
379
330
331
100
AcDbEntity
  8
1
  6
Continuous
 62
     3
100
AcDbLine
 10
45.98091473923603
 20
5.940280618645843
 30
0.0
 11
46.47120884708114
 21
6.430574726490939
 31
0.0
  0
LINE
  5
37A
330
331
100
AcDbEntity
  8
1
  6
Continuous
 62
     3
100
AcDbLine
 10
46.47120884708112
 20
6.430574726490939
 30
0.0
 11
46.98151495932807
 21
5.920268614244002
 31
0.0
  0
LINE
  5
37B
330
331
100
AcDbEntity
  8
1
  6
Continuous
 62
     3
100
AcDbLine
 10
46.98151495932807
 20
5.920268614244002
 30
0.0
 11
47.47180906717316
 21
6.410562722089104
 31
0.0
  0
LINE
  5
37C
330
331
100
AcDbEntity
  8
1
  6
Continuous
 62
     3
100
AcDbLine
 10
48.47240928726519
 20
6.390550717687262
 30
0.0
 11
48.98271539951212
 21
5.880244605440325
 31
0.0
  0
LINE
  5
37D
330
331
100
AcDbEntity
  8
1
  6
Continuous
 62
     3
100
AcDbLine
 10
48.98271539951212
 20
5.880244605440325
 30
0.0
 11
49.47300950735723
 21
6.37053871328542
 31
0.0
  0
LINE
  5
37E
330
331
100
AcDbEntity
  8
1
  6
Continuous
 62
     3
100
AcDbLine
 10
47.47180906717316
 20
6.410562722089104
 30
0.0
 11
47.9821151794201
 21
5.900256609842167
 31
0.0
  0
LINE
  5
37F
330
331
100
AcDbEntity
  8
1
  6
Continuous
 62
     3
100
AcDbLine
 10
47.9821151794201
 20
5.900256609842167
 30
0.0
 11
48.4724092872652
 21
6.390550717687262
 31
0.0
  0
LINE
  5
380
330
331
100
AcDbEntity
  8
1
  6
Continuous
 62
     3
100
AcDbLine
 10
49.47300950735723
 20
6.370538713285427
 30
0.0
 11
49.98331561960415
 21
5.860232601038483
 31
0.0
  0
LINE
  5
381
330
331
100
AcDbEntity
  8
1
  6
Continuous
 62
     3
100
AcDbLine
 10
49.98331561960415
 20
5.860232601038483
 30
0.0
 11
50.47360972744925
 21
6.350526708883585
 31
0.0
  0
LINE
  5
382
330
331
100
AcDbEntity
  8
1
  6
Continuous
 62
     3
100
AcDbLine
 10
50.47360972744925
 20
6.350526708883585
 30
0.0
 11
50.98391583969619
 21
5.840220596636648
 31
0.0
  0
LINE
  5
383
330
331
100
AcDbEntity
  8
1
  6
Continuous
 62
     3
100
AcDbLine
 10
50.98391583969619
 20
5.840220596636648
 30
0.0
 11
51.47420994754129
 21
6.33051470448175
 31
0.0
  0
LINE
  5
384
330
331
100
AcDbEntity
  8
1
  6
Continuous
 62
     3
100
AcDbLine
 10
51.47420994754128
 20
6.330514704481736
 30
0.0
 11
51.98451605978821
 21
5.820208592234799
 31
0.0
  0
LINE
  5
385
330
331
100
AcDbEntity
  8
1
  6
Continuous
 62
     3
100
AcDbLine
 10
51.98451605978821
 20
5.820208592234799
 30
0.0
 11
52.4748101676333
 21
6.310502700079901
 31
0.0
  0
LINE
  5
386
330
331
100
AcDbEntity
  8
1
  6
Continuous
 62
     3
100
AcDbLine
 10
52.4748101676333
 20
6.310502700079901
 30
0.0
 11
52.98511627988024
 21
5.800196587832964
 31
0.0
  0
LINE
  5
387
330
331
100
AcDbEntity
  8
1
  6
Continuous
 62
     3
100
AcDbLine
 10
52.98511627988024
 20
5.800196587832964
 30
0.0
 11
53.47541038772534
 21
6.290490695678059
 31
0.0
  0
LINE
  5
388
330
331
100
AcDbEntity
  8
1
  6
Continuous
 62
     3
100
AcDbLine
 10
53.47541038772534
 20
6.290490695678066
 30
0.0
 11
53.98571649997228
 21
5.780184583431129
 31
0.0
  0
LINE
  5
389
330
331
100
AcDbEntity
  8
1
  6
Continuous
 62
     3
100
AcDbLine
 10
53.98571649997228
 20
5.780184583431129
 30
0.0
 11
54.47601060781738
 21
6.270478691276224
 31
0.0
  0
LINE
  5
38A
330
331
100
AcDbEntity
  8
1
  6
Continuous
 62
     3
100
AcDbLine
 10
54.47601060781736
 20
6.270478691276232
 30
0.0
 11
54.9863167200643
 21
5.760172579029287
 31
0.0
  0
LINE
  5
38B
330
331
100
AcDbEntity
  8
1
  6
Continuous
 62
     3
100
AcDbLine
 10
54.9863167200643
 20
5.760172579029287
 30
0.0
 11
55.4766108279094
 21
6.25046668687439
 31
0.0
  0
LINE
  5
38C
330
331
100
AcDbEntity
  8
1
  6
Continuous
 62
     3
100
AcDbLine
 10
55.4766108279094
 20
6.25046668687439
 30
0.0
 11
55.98691694015634
 21
5.740160574627453
 31
0.0
  0
LINE
  5
38D
330
331
100
AcDbEntity
  8
1
  6
Continuous
 62
     3
100
AcDbLine
 10
55.98691694015634
 20
5.740160574627453
 30
0.0
 11
56.47721104800143
 21
6.230454682472548
 31
0.0
  0
LINE
  5
38E
330
331
100
AcDbEntity
  8
1
  6
Continuous
 62
     3
100
AcDbLine
 10
56.47721104800143
 20
6.230454682472555
 30
0.0
 11
56.98751716024837
 21
5.720148570225618
 31
0.0
  0
LINE
  5
38F
330
331
100
AcDbEntity
  8
1
  6
Continuous
 62
     3
100
AcDbLine
 10
56.98751716024837
 20
5.720148570225618
 30
0.0
 11
57.47781126809347
 21
6.210442678070713
 31
0.0
  0
LINE
  5
390
330
331
100
AcDbEntity
  8
1
  6
Continuous
 62
     3
100
AcDbLine
 10
57.47781126809347
 20
6.21044267807072
 30
0.0
 11
57.98811738034041
 21
5.700136565823776
 31
0.0
  0
LINE
  5
391
330
331
100
AcDbEntity
  8
1
  6
Continuous
 62
     3
100
AcDbLine
 10
57.98811738034041
 20
5.700136565823776
 30
0.0
 11
58.47841148818551
 21
6.190430673668878
 31
0.0
  0
LINE
  5
392
330
331
100
AcDbEntity
  8
1
  6
Continuous
 62
     3
100
AcDbLine
 10
59.47901170827753
 20
6.170418669267043
 30
0.0
 11
59.98931782052447
 21
5.660112557020106
 31
0.0
  0
LINE
  5
393
330
331
100
AcDbEntity
  8
1
  6
Continuous
 62
     3
100
AcDbLine
 10
59.98931782052447
 20
5.660112557020106
 30
0.0
 11
60.47961192836956
 21
6.150406664865208
 31
0.0
  0
LINE
  5
394
330
331
100
AcDbEntity
  8
1
  6
Continuous
 62
     3
100
AcDbLine
 10
58.47841148818549
 20
6.190430673668878
 30
0.0
 11
58.98871760043243
 21
5.680124561421941
 31
0.0
  0
LINE
  5
395
330
331
100
AcDbEntity
  8
1
  6
Continuous
 62
     3
100
AcDbLine
 10
58.98871760043243
 20
5.680124561421941
 30
0.0
 11
59.47901170827753
 21
6.170418669267043
 31
0.0
  0
LINE
  5
396
330
331
100
AcDbEntity
  8
1
  6
Continuous
 62
     3
100
AcDbLine
 10
60.47961192836956
 20
6.150406664865208
 30
0.0
 11
60.98991804061649
 21
5.640100552618271
 31
0.0
  0
LINE
  5
397
330
331
100
AcDbEntity
  8
1
  6
Continuous
 62
     3
100
AcDbLine
 10
60.98991804061649
 20
5.640100552618271
 30
0.0
 11
61.4802121484616
 21
6.130394660463367
 31
0.0
  0
LINE
  5
398
330
331
100
AcDbEntity
  8
1
  6
Continuous
 62
     3
100
AcDbLine
 10
62.48081236855362
 20
6.110382656061539
 30
0.0
 11
62.99111848080056
 21
5.600076543814595
 31
0.0
  0
LINE
  5
399
330
331
100
AcDbEntity
  8
1
  6
Continuous
 62
     3
100
AcDbLine
 10
62.99111848080056
 20
5.600076543814595
 30
0.0
 11
63.48141258864566
 21
6.090370651659697
 31
0.0
  0
LINE
  5
39A
330
331
100
AcDbEntity
  8
1
  6
Continuous
 62
     3
100
AcDbLine
 10
63.48141258864566
 20
6.090370651659697
 30
0.0
 11
63.9917187008926
 21
5.58006453941276
 31
0.0
  0
LINE
  5
39B
330
331
100
AcDbEntity
  8
1
  6
Continuous
 62
     3
100
AcDbLine
 10
63.9917187008926
 20
5.58006453941276
 30
0.0
 11
64.4820128087377
 21
6.070358647257855
 31
0.0
  0
LINE
  5
39C
330
331
100
AcDbEntity
  8
1
  6
Continuous
 62
     3
100
AcDbLine
 10
64.4820128087377
 20
6.070358647257862
 30
0.0
 11
64.99231892098462
 21
5.560052535010925
 31
0.0
  0
LINE
  5
39D
330
331
100
AcDbEntity
  8
1
  6
Continuous
 62
     3
100
AcDbLine
 10
64.99231892098462
 20
5.560052535010925
 30
0.0
 11
65.48261302882972
 21
6.05034664285602
 31
0.0
  0
LINE
  5
39E
330
331
100
AcDbEntity
  8
1
  6
Continuous
 62
     3
100
AcDbLine
 10
66.48321324892174
 20
6.030334638454185
 30
0.0
 11
66.9935193611687
 21
5.520028526207248
 31
0.0
  0
LINE
  5
39F
330
331
100
AcDbEntity
  8
1
  6
Continuous
 62
     3
100
AcDbLine
 10
66.9935193611687
 20
5.520028526207248
 30
0.0
 11
67.4838134690138
 21
6.010322634052351
 31
0.0
  0
LINE
  5
3A0
330
331
100
AcDbEntity
  8
1
  6
Continuous
 62
     3
100
AcDbLine
 10
65.48261302882972
 20
6.050346642856027
 30
0.0
 11
65.99291914107667
 21
5.540040530609083
 31
0.0
  0
LINE
  5
3A1
330
331
100
AcDbEntity
  8
1
  6
Continuous
 62
     3
100
AcDbLine
 10
65.99291914107667
 20
5.540040530609083
 30
0.0
 11
66.48321324892176
 21
6.030334638454185
 31
0.0
  0
LINE
  5
3A2
330
331
100
AcDbEntity
  8
1
  6
Continuous
 62
     3
100
AcDbLine
 10
67.4838134690138
 20
6.010322634052351
 30
0.0
 11
67.99411958126072
 21
5.500016521805414
 31
0.0
  0
LINE
  5
3A3
330
331
100
AcDbEntity
  8
1
  6
Continuous
 62
     3
100
AcDbLine
 10
67.99411958126072
 20
5.500016521805414
 30
0.0
 11
68.48441368910582
 21
5.990310629650516
 31
0.0
  0
LINE
  5
3A4
330
331
100
AcDbEntity
  8
1
  6
Continuous
 62
     3
100
AcDbLine
 10
68.48441368910582
 20
5.990310629650516
 30
0.0
 11
68.99471980135274
 21
5.480004517403579
 31
0.0
  0
LINE
  5
3A5
330
331
100
AcDbEntity
  8
1
  6
Continuous
 62
     3
100
AcDbLine
 10
68.99471980135274
 20
5.480004517403579
 30
0.0
 11
69.48501390919785
 21
5.970298625248674
 31
0.0
  0
LINE
  5
3A6
330
331
100
AcDbEntity
  8
1
  6
Continuous
 62
     3
100
AcDbLine
 10
69.48501390919785
 20
5.970298625248681
 30
0.0
 11
69.9953200214448
 21
5.459992513001744
 31
0.0
  0
LINE
  5
3A7
330
331
100
AcDbEntity
  8
1
  6
Continuous
 62
     3
100
AcDbLine
 10
69.9953200214448
 20
5.459992513001744
 30
0.0
 11
70.48561412928989
 21
5.950286620846839
 31
0.0
  0
LINE
  5
3A8
330
331
100
AcDbEntity
  8
1
  6
Continuous
 62
     3
100
AcDbLine
 10
70.48561412928987
 20
5.950286620846846
 30
0.0
 11
70.99592024153682
 21
5.439980508599902
 31
0.0
  0
LINE
  5
3A9
330
331
100
AcDbEntity
  8
1
  6
Continuous
 62
     3
100
AcDbLine
 10
70.99592024153682
 20
5.439980508599902
 30
0.0
 11
71.48621434938192
 21
5.930274616445004
 31
0.0
  0
LINE
  5
3AA
330
331
100
AcDbEntity
  8
1
  6
Continuous
 62
     3
100
AcDbLine
 10
71.48621434938192
 20
5.930274616445004
 30
0.0
 11
71.99652046162885
 21
5.419968504198067
 31
0.0
  0
LINE
  5
3AB
330
331
100
AcDbEntity
  8
1
  6
Continuous
 62
     3
100
AcDbLine
 10
71.99652046162885
 20
5.419968504198067
 30
0.0
 11
72.48681456947395
 21
5.910262612043162
 31
0.0
  0
LINE
  5
3AC
330
331
100
AcDbEntity
  8
1
  6
Continuous
 62
     3
100
AcDbLine
 10
72.48681456947395
 20
5.910262612043169
 30
0.0
 11
72.99712068172087
 21
5.399956499796232
 31
0.0
  0
LINE
  5
3AD
330
331
100
AcDbEntity
  8
1
  6
Continuous
 62
     3
100
AcDbLine
 10
72.99712068172087
 20
5.399956499796232
 30
0.0
 11
73.48741478956597
 21
5.890250607641327
 31
0.0
  0
LINE
  5
3AE
330
331
100
AcDbEntity
  8
1
  6
Continuous
 62
     3
100
AcDbLine
 10
73.48741478956597
 20
5.890250607641335
 30
0.0
 11
73.99772090181293
 21
5.37994449539439
 31
0.0
  0
LINE
  5
3AF
330
331
100
AcDbEntity
  8
1
  6
Continuous
 62
     3
100
AcDbLine
 10
73.99772090181293
 20
5.37994449539439
 30
0.0
 11
74.48801500965801
 21
5.870238603239493
 31
0.0
  0
LINE
  5
3B0
330
331
100
AcDbEntity
  8
1
  6
Continuous
 62
     3
100
AcDbLine
 10
74.488015009658
 20
5.870238603239493
 30
0.0
 11
74.99832112190495
 21
5.359932490992556
 31
0.0
  0
LINE
  5
3B1
330
331
100
AcDbEntity
  8
1
  6
Continuous
 62
     3
100
AcDbLine
 10
74.99832112190495
 20
5.359932490992556
 30
0.0
 11
75.48861522975005
 21
5.850226598837658
 31
0.0
  0
LINE
  5
3B2
330
331
100
AcDbEntity
  8
1
  6
Continuous
 62
     3
100
AcDbLine
 10
75.48861522975005
 20
5.850226598837658
 30
0.0
 11
75.99892134199698
 21
5.339920486590721
 31
0.0
  0
LINE
  5
3B3
330
331
100
AcDbEntity
  8
1
  6
Continuous
 62
     3
100
AcDbLine
 10
75.99892134199698
 20
5.339920486590721
 30
0.0
 11
76.48921544984208
 21
5.830214594435823
 31
0.0
  0
LINE
  5
3B4
330
331
100
AcDbEntity
  8
1
  6
Continuous
 62
     3
100
AcDbLine
 10
76.48921544984208
 20
5.830214594435823
 30
0.0
 11
76.999521562089
 21
5.319908482188886
 31
0.0
  0
LINE
  5
3B5
330
331
100
AcDbEntity
  8
1
  6
Continuous
 62
     3
100
AcDbLine
 10
76.999521562089
 20
5.319908482188886
 30
0.0
 11
77.4898156699341
 21
5.810202590033981
 31
0.0
  0
LINE
  5
3B6
330
331
100
AcDbEntity
  8
1
  6
Continuous
 62
     3
100
AcDbLine
 10
77.4898156699341
 20
5.810202590033988
 30
0.0
 11
78.00012178218105
 21
5.299896477787051
 31
0.0
  0
LINE
  5
3B7
330
331
100
AcDbEntity
  8
1
  6
Continuous
 62
     3
100
AcDbLine
 10
78.00012178218105
 20
5.299896477787051
 30
0.0
 11
78.49041589002614
 21
5.790190585632146
 31
0.0
  0
LINE
  5
3B8
330
331
100
AcDbEntity
  8
1
  6
Continuous
 62
     3
100
AcDbLine
 10
78.49041589002613
 20
5.790190585632153
 30
0.0
 11
79.00072200227308
 21
5.279884473385209
 31
0.0
  0
LINE
  5
3B9
330
331
100
AcDbEntity
  8
1
  6
Continuous
 62
     3
100
AcDbLine
 10
79.00072200227308
 20
5.279884473385209
 30
0.0
 11
79.49101611011818
 21
5.770178581230311
 31
0.0
  0
LINE
  5
3BA
330
331
100
AcDbEntity
  8
1
  6
Continuous
 62
     3
100
AcDbLine
 10
79.49101611011818
 20
5.770178581230311
 30
0.0
 11
80.0013222223651
 21
5.259872468983374
 31
0.0
  0
LINE
  5
3BB
330
331
100
AcDbEntity
  8
1
  6
Continuous
 62
     3
100
AcDbLine
 10
80.0013222223651
 20
5.259872468983374
 30
0.0
 11
80.4916163302102
 21
5.75016657682847
 31
0.0
  0
LINE
  5
3BC
330
331
100
AcDbEntity
  8
1
  6
Continuous
 62
     3
100
AcDbLine
 10
80.4916163302102
 20
5.750166576828477
 30
0.0
 11
81.00192244245713
 21
5.23986046458154
 31
0.0
  0
LINE
  5
3BD
330
331
100
AcDbEntity
  8
1
  6
Continuous
 62
     3
100
AcDbLine
 10
81.00192244245713
 20
5.23986046458154
 30
0.0
 11
81.49221655030223
 21
5.730154572426635
 31
0.0
  0
LINE
  5
3BE
330
331
100
AcDbEntity
  8
1
  6
Continuous
 62
     3
100
AcDbLine
 10
82.49281677039426
 20
5.7101425680248
 30
0.0
 11
83.00312288264121
 21
5.199836455777863
 31
0.0
  0
LINE
  5
3BF
330
331
100
AcDbEntity
  8
1
  6
Continuous
 62
     3
100
AcDbLine
 10
83.00312288264121
 20
5.199836455777863
 30
0.0
 11
83.49341699048631
 21
5.690130563622965
 31
0.0
  0
LINE
  5
3C0
330
331
100
AcDbEntity
  8
1
  6
Continuous
 62
     3
100
AcDbLine
 10
81.49221655030223
 20
5.730154572426642
 30
0.0
 11
82.00252266254918
 21
5.219848460179698
 31
0.0
  0
LINE
  5
3C1
330
331
100
AcDbEntity
  8
1
  6
Continuous
 62
     3
100
AcDbLine
 10
82.00252266254918
 20
5.219848460179698
 30
0.0
 11
82.49281677039427
 21
5.7101425680248
 31
0.0
  0
LINE
  5
3C2
330
331
100
AcDbEntity
  8
1
  6
Continuous
 62
     3
100
AcDbLine
 10
83.49341699048631
 20
5.690130563622965
 30
0.0
 11
84.00372310273323
 21
5.179824451376028
 31
0.0
  0
LINE
  5
3C3
330
331
100
AcDbEntity
  8
1
  6
Continuous
 62
     3
100
AcDbLine
 10
84.00372310273323
 20
5.179824451376028
 30
0.0
 11
84.49401721057833
 21
5.67011855922113
 31
0.0
  0
LINE
  5
3C4
330
331
100
AcDbEntity
  8
1
  6
Continuous
 62
     3
100
AcDbLine
 10
84.49401721057833
 20
5.67011855922113
 30
0.0
 11
85.00432332282526
 21
5.159812446974193
 31
0.0
  0
LINE
  5
3C5
330
331
100
AcDbEntity
  8
1
  6
Continuous
 62
     3
100
AcDbLine
 10
85.00432332282526
 20
5.159812446974193
 30
0.0
 11
85.49461743067036
 21
5.650106554819288
 31
0.0
  0
LINE
  5
3C6
330
331
100
AcDbEntity
  8
1
  6
Continuous
 62
     3
100
AcDbLine
 10
85.49461743067036
 20
5.650106554819295
 30
0.0
 11
86.00492354291731
 21
5.139800442572358
 31
0.0
  0
LINE
  5
3C7
330
331
100
AcDbEntity
  8
1
  6
Continuous
 62
     3
100
AcDbLine
 10
86.00492354291731
 20
5.139800442572358
 30
0.0
 11
86.4952176507624
 21
5.630094550417454
 31
0.0
  0
LINE
  5
3C8
330
331
100
AcDbEntity
  8
1
  6
Continuous
 62
     3
100
AcDbLine
 10
86.49521765076224
 20
5.630094550417311
 30
0.0
 11
87.0055237630092
 21
5.119788438170374
 31
0.0
  0
LINE
  5
3C9
330
331
100
AcDbEntity
  8
1
  6
Continuous
 62
     3
100
AcDbLine
 10
87.0055237630092
 20
5.119788438170374
 30
0.0
 11
87.49581787085428
 21
5.61008254601547
 31
0.0
  0
LINE
  5
3CA
330
331
100
AcDbEntity
  8
1
  6
Continuous
 62
     3
100
AcDbLine
 10
87.49581787085427
 20
5.610082546015477
 30
0.0
 11
88.00612398310122
 21
5.099776433768533
 31
0.0
  0
LINE
  5
3CB
330
331
100
AcDbEntity
  8
1
  6
Continuous
 62
     3
100
AcDbLine
 10
88.00612398310122
 20
5.099776433768533
 30
0.0
 11
88.49641809094632
 21
5.590070541613635
 31
0.0
  0
LINE
  5
3CC
330
331
100
AcDbEntity
  8
1
  6
Continuous
 62
     3
100
AcDbLine
 10
88.49641809094629
 20
5.590070541613635
 30
0.0
 11
89.00672420319324
 21
5.079764429366698
 31
0.0
  0
LINE
  5
3CD
330
331
100
AcDbEntity
  8
1
  6
Continuous
 62
     3
100
AcDbLine
 10
89.00672420319324
 20
5.079764429366698
 30
0.0
 11
89.49701831103835
 21
5.570058537211793
 31
0.0
  0
LINE
  5
3CE
330
331
100
AcDbEntity
  8
1
  6
Continuous
 62
     3
100
AcDbLine
 10
89.49701831103835
 20
5.5700585372118
 30
0.0
 11
90.00732442328527
 21
5.059752424964856
 31
0.0
  0
LINE
  5
3CF
330
331
100
AcDbEntity
  8
1
  6
Continuous
 62
     3
100
AcDbLine
 10
90.00732442328527
 20
5.059752424964856
 30
0.0
 11
90.49761853113037
 21
5.550046532809958
 31
0.0
  0
LINE
  5
3D0
330
331
100
AcDbEntity
  8
1
  6
Continuous
 62
     3
100
AcDbLine
 10
39.50000240869647
 20
0.4999988552586316
 30
0.0
 11
42.50000240869647
 21
0.4999988552586316
 31
0.0
  0
LINE
  5
3D1
330
331
100
AcDbEntity
  8
1
  6
Continuous
 62
     3
100
AcDbLine
 10
43.00000240869647
 20
0.9999988552586316
 30
0.0
 11
43.00000240869647
 21
2.995294467112501
 31
0.0
  0
LINE
  5
3D2
330
331
100
AcDbEntity
  8
1
  6
Continuous
 62
     3
100
AcDbLine
 10
43.51058947856827
 20
3.495182368497929
 30
0.0
 11
49.4834538913578
 21
3.368683742110314
 31
0.0
  0
LINE
  5
3D3
330
331
100
AcDbEntity
  8
1
  6
Continuous
 62
     3
100
AcDbLine
 10
33.00000240869647
 20
0.4999988552586316
 30
0.0
 11
31.00000240869647
 21
0.4999988552586316
 31
0.0
  0
LINE
  5
3D4
330
331
100
AcDbEntity
  8
1
  6
Continuous
 62
     3
100
AcDbLine
 10
30.50000240869647
 20
0.9999988552586316
 30
0.0
 11
30.50000240869647
 21
2.121319198818277
 31
0.0
  0
LINE
  5
3D5
330
331
100
AcDbEntity
  8
1
  6
Continuous
 62
     3
100
AcDbLine
 10
30.50000240869647
 20
2.121319198818277
 30
0.0
 11
36.03211418047817
 21
7.653430970599977
 31
0.0
  0
ARC
  5
3D6
330
331
100
AcDbEntity
  8
1
  6
Continuous
 62
     3
100
AcDbCircle
 10
35.67856078988489
 20
8.006984361193254
 30
0.0
 40
0.5
100
AcDbArc
 50
315.0000000000003
 51
90.96613333159924
  0
ARC
  5
3D7
330
331
100
AcDbEntity
  8
1
  6
Continuous
 62
     3
100
AcDbCircle
 10
35.67856078988489
 20
8.006984361193254
 30
0.0
 40
0.5
100
AcDbArc
 50
315.0000000000003
 51
90.96613333159924
  0
ARC
  5
3D8
330
331
100
AcDbEntity
  8
1
  6
Continuous
 62
     3
100
AcDbCircle
 10
31.00000240869647
 20
0.9999988552586316
 30
0.0
 40
0.5
100
AcDbArc
 50
180.0
 51
270.0
  0
ARC
  5
3D9
330
331
100
AcDbEntity
  8
1
  6
Continuous
 62
     3
100
AcDbCircle
 10
31.00000240869647
 20
0.9999988552586316
 30
0.0
 40
0.5
100
AcDbArc
 50
180.0
 51
270.0
  0
ARC
  5
3DA
330
331
100
AcDbEntity
  8
1
  6
Continuous
 62
     3
100
AcDbCircle
 10
39.50000240869647
 20
0.9999988552586316
 30
0.0
 40
0.5
100
AcDbArc
 50
180.0
 51
270.0
  0
ARC
  5
3DB
330
331
100
AcDbEntity
  8
1
  6
Continuous
 62
     3
100
AcDbCircle
 10
39.50000240869647
 20
0.9999988552586316
 30
0.0
 40
0.5
100
AcDbArc
 50
180.0
 51
270.0
  0
ARC
  5
3DC
330
331
100
AcDbEntity
  8
1
  6
Continuous
 62
     3
100
AcDbCircle
 10
42.50000240869647
 20
0.9999988552586316
 30
0.0
 40
0.5
100
AcDbArc
 50
270.0
 51
0.0
  0
ARC
  5
3DD
330
331
100
AcDbEntity
  8
1
  6
Continuous
 62
     3
100
AcDbCircle
 10
42.50000240869647
 20
0.9999988552586316
 30
0.0
 40
0.5
100
AcDbArc
 50
270.0
 51
0.0
  0
ARC
  5
3DE
330
331
100
AcDbEntity
  8
1
  6
Continuous
 62
     3
100
AcDbCircle
 10
43.50000240869647
 20
2.995294467112501
 30
0.0
 40
0.5
100
AcDbArc
 50
88.7867204852132
 51
180.0
  0
ARC
  5
3DF
330
331
100
AcDbEntity
  8
1
  6
Continuous
 62
     3
100
AcDbCircle
 10
43.50000240869647
 20
2.995294467112501
 30
0.0
 40
0.5
100
AcDbArc
 50
88.7867204852132
 51
180.0
  0
ENDBLK
  5
333
330
331
100
AcDbEntity
  8
0
100
AcDbBlockEnd
  0
BLOCK
  5
3E1
330
3E0
100
AcDbEntity
  8
0
100
AcDbBlockBegin
  2
GEN_BLOCK00007
 70
     0
 10
0.0
 20
0.0
 30
0.0
  3
GEN_BLOCK00007
  1
GEN_BLOCK00007
  0
LINE
  5
3E4
330
3E0
100
AcDbEntity
  8
GEN_LAYER
  6
Continuous
 62
     1
100
AcDbLine
 10
149.8750839455446
 20
5.500001485637625
 30
0.0
 11
149.8750837269876
 21
10.50000234933889
 31
0.0
  0
LINE
  5
3E5
330
3E0
100
AcDbEntity
  8
GEN_LAYER
  6
Continuous
 62
     1
100
AcDbLine
 10
149.8750839455446
 20
5.500001485637625
 30
0.0
 11
149.8750841641016
 21
0.5000006219363655
 31
0.0
  0
LINE
  5
3E6
330
3E0
100
AcDbEntity
  8
GEN_LAYER
  6
Continuous
 62
     1
100
AcDbLine
 10
149.2500838144104
 20
8.500002322019263
 30
0.0
 11
149.8750837269876
 21
10.50000234933889
 31
0.0
  0
LINE
  5
3E7
330
3E0
100
AcDbEntity
  8
GEN_LAYER
  6
Continuous
 62
     1
100
AcDbLine
 10
149.8750837269876
 20
10.50000234933889
 30
0.0
 11
150.5000838144104
 21
8.500002376658507
 31
0.0
  0
LINE
  5
3E8
330
3E0
100
AcDbEntity
  8
GEN_LAYER
  6
Continuous
 62
     1
100
AcDbLine
 10
150.5000840766788
 20
2.500000649255988
 30
0.0
 11
149.8750841641016
 21
0.5000006219363655
 31
0.0
  0
LINE
  5
3E9
330
3E0
100
AcDbEntity
  8
GEN_LAYER
  6
Continuous
 62
     1
100
AcDbLine
 10
149.8750841641016
 20
0.5000006219363655
 30
0.0
 11
149.2500840766788
 21
2.500000594616743
 31
0.0
  0
LINE
  5
3EA
330
3E0
100
AcDbEntity
  8
GEN_LAYER
  6
Continuous
 62
     1
100
AcDbLine
 10
98.62847709655762
 20
10.50000010927847
 30
0.0
 11
152.4750837269876
 21
10.5000024629885
 31
0.0
  0
LINE
  5
3EB
330
3E0
100
AcDbEntity
  8
GEN_LAYER
  6
Continuous
 62
     1
100
AcDbLine
 10
138.1468391418457
 20
0.5000001092784743
 30
0.0
 11
152.4750841641016
 21
0.500000735585985
 31
0.0
  0
TEXT
  5
3EC
330
3E0
100
AcDbEntity
  8
GEN_LAYER
  6
Continuous
 62
     3
100
AcDbText
 10
149.3750526172304
 20
1.293699074772626
 30
0.0
 40
2.5
  1
10.0
 50
89.71352388012032
100
AcDbText
  0
LINE
  5
3ED
330
3E0
100
AcDbEntity
  8
GEN_LAYER
  6
Continuous
 62
     1
100
AcDbLine
 10
2.999999942898853
 20
6.249997925266818
 30
0.0
 11
2.999999669702746
 21
12.49999611922034
 31
0.0
  0
LINE
  5
3EE
330
3E0
100
AcDbEntity
  8
GEN_LAYER
  6
Continuous
 62
     1
100
AcDbLine
 10
2.999999942898853
 20
6.249997925266818
 30
0.0
 11
3.000000216094961
 21
-0.0000002686867049
 31
0.0
  0
LINE
  5
3EF
330
3E0
100
AcDbEntity
  8
GEN_LAYER
  6
Continuous
 62
     1
100
AcDbLine
 10
2.374999757125522
 20
10.49999609190072
 30
0.0
 11
2.999999669702746
 21
12.49999611922034
 31
0.0
  0
LINE
  5
3F0
330
3E0
100
AcDbEntity
  8
GEN_LAYER
  6
Continuous
 62
     1
100
AcDbLine
 10
2.999999669702746
 20
12.49999611922034
 30
0.0
 11
3.624999757125522
 21
10.49999614653996
 31
0.0
  0
LINE
  5
3F1
330
3E0
100
AcDbEntity
  8
GEN_LAYER
  6
Continuous
 62
     1
100
AcDbLine
 10
3.625000128672184
 20
1.999999758632917
 30
0.0
 11
3.000000216094961
 21
-0.0000002686867049
 31
0.0
  0
LINE
  5
3F2
330
3E0
100
AcDbEntity
  8
GEN_LAYER
  6
Continuous
 62
     1
100
AcDbLine
 10
3.000000216094961
 20
-0.0000002686867049
 30
0.0
 11
2.375000128672184
 21
1.999999703993673
 31
0.0
  0
LINE
  5
3F3
330
3E0
100
AcDbEntity
  8
GEN_LAYER
  6
Continuous
 62
     1
100
AcDbLine
 10
45.64683723449707
 20
12.49999798337289
 30
0.0
 11
0.3999996697027512
 21
12.49999600557073
 31
0.0
  0
LINE
  5
3F4
330
3E0
100
AcDbEntity
  8
GEN_LAYER
  6
Continuous
 62
     1
100
AcDbLine
 10
6.646835327148438
 20
-0.0000001092784743
 30
0.0
 11
0.4000002160949663
 21
-0.0000003823363173
 31
0.0
  0
TEXT
  5
3F5
330
3E0
100
AcDbEntity
  8
GEN_LAYER
  6
Continuous
 62
     3
100
AcDbText
 10
2.499968614584589
 20
2.043695514401811
 30
0.0
 40
2.5
  1
12.5
 50
89.71352388012032
100
AcDbText
  0
LINE
  5
3F6
330
3E0
100
AcDbEntity
  8
GEN_LAYER
  6
Continuous
 62
     3
100
AcDbLine
 10
26.92847770006232
 20
95.25831313204758
 30
0.0
 11
26.92847770006232
 21
48.97783373830268
 31
0.0
  0
LINE
  5
3F7
330
3E0
100
AcDbEntity
  8
GEN_LAYER
  6
Continuous
 62
     3
100
AcDbLine
 10
26.92847770006232
 20
32.97783373830268
 30
0.0
 11
26.92847770006232
 21
24.92595122883521
 31
0.0
  0
LINE
  5
3F8
330
3E0
100
AcDbEntity
  8
GEN_LAYER
  6
Continuous
 62
     3
100
AcDbLine
 10
26.92847770006232
 20
24.92595122883521
 30
0.0
 11
28.69174750714696
 21
14.92595122883522
 31
0.0
  0
LINE
  5
3F9
330
3E0
100
AcDbEntity
  8
GEN_LAYER
  6
Continuous
 62
     3
100
AcDbLine
 10
28.69174750714696
 20
14.92595122883522
 30
0.0
 11
45.16520789297767
 21
14.92595122883521
 31
0.0
  0
LINE
  5
3FA
330
3E0
100
AcDbEntity
  8
GEN_LAYER
  6
Continuous
 62
     3
100
AcDbLine
 10
45.16520789297767
 20
14.92595122883521
 30
0.0
 11
46.92847770006232
 21
24.92595122883521
 31
0.0
  0
LINE
  5
3FB
330
3E0
100
AcDbEntity
  8
GEN_LAYER
  6
Continuous
 62
     3
100
AcDbLine
 10
46.92847770006232
 20
24.92595122883521
 30
0.0
 11
26.92847770006232
 21
24.92595122883521
 31
0.0
  0
LINE
  5
3FC
330
3E0
100
AcDbEntity
  8
GEN_LAYER
  6
Continuous
 62
     3
100
AcDbLine
 10
26.92847770006232
 20
24.92595122883521
 30
0.0
 11
46.92847770006232
 21
24.92595122883521
 31
0.0
  0
LINE
  5
3FD
330
3E0
100
AcDbEntity
  8
GEN_LAYER
  6
Continuous
 62
     3
100
AcDbLine
 10
46.92847770006232
 20
24.92595122883521
 30
0.0
 11
46.92847770006232
 21
32.97783373830268
 31
0.0
  0
LINE
  5
3FE
330
3E0
100
AcDbEntity
  8
GEN_LAYER
  6
Continuous
 62
     3
100
AcDbLine
 10
46.92847770006232
 20
48.97783373830268
 30
0.0
 11
46.92847770006232
 21
95.25831313204758
 31
0.0
  0
ARC
  5
3FF
330
3E0
100
AcDbEntity
  8
GEN_LAYER
  6
Continuous
 62
     3
100
AcDbCircle
 10
29.92847770006232
 20
95.25831313204758
 30
0.0
 40
3.0
100
AcDbArc
 50
64.62306647484773
 51
180.0
  0
ARC
  5
400
330
3E0
100
AcDbEntity
  8
GEN_LAYER
  6
Continuous
 62
     3
100
AcDbCircle
 10
29.92847770006232
 20
95.25831313204758
 30
0.0
 40
3.0
100
AcDbArc
 50
64.62306647484773
 51
180.0
  0
LINE
  5
401
330
3E0
100
AcDbEntity
  8
GEN_LAYER
  6
Continuous
 62
     3
100
AcDbLine
 10
31.2141919857766
 20
97.96883684076333
 30
0.0
 11
42.64276341434802
 21
92.54778942333182
 31
0.0
  0
ARC
  5
402
330
3E0
100
AcDbEntity
  8
GEN_LAYER
  6
Continuous
 62
     3
100
AcDbCircle
 10
43.92847770006232
 20
95.25831313204758
 30
0.0
 40
3.0
100
AcDbArc
 50
244.6230664748476
 51
115.3769335251525
  0
ARC
  5
403
330
3E0
100
AcDbEntity
  8
GEN_LAYER
  6
Continuous
 62
     3
100
AcDbCircle
 10
43.92847770006232
 20
95.25831313204758
 30
0.0
 40
3.0
100
AcDbArc
 50
244.6230664748476
 51
115.3769335251525
  0
LINE
  5
404
330
3E0
100
AcDbEntity
  8
GEN_LAYER
  6
Continuous
 62
     3
100
AcDbLine
 10
42.64276341434802
 20
97.96883684076332
 30
0.0
 11
36.92847770006232
 21
95.25831313204758
 31
0.0
  0
LINE
  5
405
330
3E0
100
AcDbEntity
  8
GEN_LAYER
  6
Continuous
 62
     3
100
AcDbLine
 10
51.62847770006232
 20
48.97783373830268
 30
0.0
 11
23.92847770006232
 21
48.97783373830268
 31
0.0
  0
LINE
  5
406
330
3E0
100
AcDbEntity
  8
GEN_LAYER
  6
Continuous
 62
     3
100
AcDbLine
 10
23.92847770006232
 20
48.97783373830268
 30
0.0
 11
23.92847770006232
 21
32.97783373830268
 31
0.0
  0
LINE
  5
407
330
3E0
100
AcDbEntity
  8
GEN_LAYER
  6
Continuous
 62
     3
100
AcDbLine
 10
23.92847770006232
 20
32.97783373830268
 30
0.0
 11
51.62847770006232
 21
32.97783373830268
 31
0.0
  0
LINE
  5
408
330
3E0
100
AcDbEntity
  8
GEN_LAYER
  6
Continuous
 62
     3
100
AcDbLine
 10
51.62847770006232
 20
32.97783373830268
 30
0.0
 11
51.62847770006232
 21
48.97783373830268
 31
0.0
  0
LINE
  5
409
330
3E0
100
AcDbEntity
  8
GEN_LAYER
  6
Continuous
 62
     3
100
AcDbLine
 10
51.62847770006232
 20
48.97783373830268
 30
0.0
 11
45.92847770006232
 21
48.97783373830268
 31
0.0
  0
LINE
  5
40A
330
3E0
100
AcDbEntity
  8
GEN_LAYER
  6
Continuous
 62
     3
100
AcDbLine
 10
45.92847770006232
 20
48.97783373830268
 30
0.0
 11
45.92847770006232
 21
32.97783373830268
 31
0.0
  0
ENDBLK
  5
3E2
330
3E0
100
AcDbEntity
  8
0
100
AcDbBlockEnd
  0
BLOCK
  5
40C
330
40B
100
AcDbEntity
  8
0
100
AcDbBlockBegin
  2
GEN_BLOCK00008
 70
     0
 10
0.0
 20
0.0
 30
0.0
  3
GEN_BLOCK00008
  1
GEN_BLOCK00008
  0
LINE
  5
40F
330
40B
100
AcDbEntity
  8
1
  6
Continuous
 62
     3
100
AcDbLine
 10
-0.0000014060007985
 20
-0.0000011447413684
 30
0.0
 11
0.4999985939992015
 21
0.4999988552586316
 31
0.0
  0
ENDBLK
  5
40D
330
40B
100
AcDbEntity
  8
0
100
AcDbBlockEnd
  0
BLOCK
  5
411
330
410
100
AcDbEntity
  8
0
100
AcDbBlockBegin
  2
GEN_BLOCK00009
 70
     0
 10
0.0
 20
0.0
 30
0.0
  3
GEN_BLOCK00009
  1
GEN_BLOCK00009
  0
LINE
  5
414
330
410
100
AcDbEntity
  8
1
  6
Continuous
 62
     1
100
AcDbLine
 10
4.40000018437928
 20
17.50000092089764
 30
0.0
 11
0.600000184379283
 21
17.50000092089764
 31
0.0
  0
LINE
  5
415
330
410
100
AcDbEntity
  8
1
  6
Continuous
 62
     1
100
AcDbLine
 10
0.0000001843792816
 20
16.90000092089764
 30
0.0
 11
0.0000001843792816
 21
16.50000092089764
 31
0.0
  0
LINE
  5
416
330
410
100
AcDbEntity
  8
1
  6
Continuous
 62
     1
100
AcDbLine
 10
0.600000184379283
 20
15.90000092089764
 30
0.0
 11
1.500000184379282
 21
15.90000092089764
 31
0.0
  0
LINE
  5
417
330
410
100
AcDbEntity
  8
1
  6
Continuous
 62
     1
100
AcDbLine
 10
1.500000184379282
 20
15.90000092089764
 30
0.0
 11
1.500000184379282
 21
14.30000092089764
 31
0.0
  0
LINE
  5
418
330
410
100
AcDbEntity
  8
1
  6
Continuous
 62
     1
100
AcDbLine
 10
1.500000184379282
 20
14.30000092089764
 30
0.0
 11
5.678703408164083
 21
9.314881285505248
 31
0.0
  0
LINE
  5
419
330
410
100
AcDbEntity
  8
1
  6
Continuous
 62
     1
100
AcDbLine
 10
5.000000184379282
 20
16.90000092089764
 30
0.0
 11
5.000000184379282
 21
16.50000092089764
 31
0.0
  0
LINE
  5
41A
330
410
100
AcDbEntity
  8
1
  6
Continuous
 62
     1
100
AcDbLine
 10
4.40000018437928
 20
15.90000092089764
 30
0.0
 11
3.500000184379282
 21
15.90000092089764
 31
0.0
  0
LINE
  5
41B
330
410
100
AcDbEntity
  8
1
  6
Continuous
 62
     1
100
AcDbLine
 10
3.500000184379282
 20
15.90000092089764
 30
0.0
 11
3.500000184379282
 21
14.70000092089764
 31
0.0
  0
LINE
  5
41C
330
410
100
AcDbEntity
  8
1
  6
Continuous
 62
     1
100
AcDbLine
 10
3.500000184379282
 20
14.70000092089764
 30
0.0
 11
7.358822322584821
 21
9.252252019901583
 31
0.0
  0
LINE
  5
41D
330
410
100
AcDbEntity
  8
1
  6
Continuous
 62
     1
100
AcDbLine
 10
5.484047521655789
 20
5.895812765965019
 30
0.0
 11
4.001512391568106
 21
4.488342705755201
 31
0.0
  0
LINE
  5
41E
330
410
100
AcDbEntity
  8
1
  6
Continuous
 62
     1
100
AcDbLine
 10
4.001512391568106
 20
4.488342705755201
 30
0.0
 11
1.608934340540859
 21
1.498875807958115
 31
0.0
  0
ARC
  5
41F
330
410
100
AcDbEntity
  8
1
  6
Continuous
 62
     1
100
AcDbCircle
 10
1.650000184379273
 20
0.7500009208976408
 30
0.0
 40
0.75
100
AcDbArc
 50
93.13876907789586
 51
9.518139286338986
  0
ARC
  5
420
330
410
100
AcDbEntity
  8
1
  6
Continuous
 62
     1
100
AcDbCircle
 10
1.650000184379273
 20
0.7500009208976408
 30
0.0
 40
0.75
100
AcDbArc
 50
93.13876907789586
 51
9.518139286338986
  0
LINE
  5
421
330
410
100
AcDbEntity
  8
1
  6
Continuous
 62
     1
100
AcDbLine
 10
5.484047521655789
 20
5.895812765965019
 30
0.0
 11
6.328886796811741
 21
6.697875368961178
 31
0.0
  0
LINE
  5
422
330
410
100
AcDbEntity
  8
1
  6
Continuous
 62
     1
100
AcDbLine
 10
6.433038743718875
 20
8.399197726680583
 30
0.0
 11
5.678703408164083
 21
9.314881285505248
 31
0.0
  0
LINE
  5
423
330
410
100
AcDbEntity
  8
1
  6
Continuous
 62
     1
100
AcDbLine
 10
7.358822322584821
 20
9.252252019901583
 30
0.0
 11
7.984680088691441
 21
8.368688114809885
 31
0.0
  0
LINE
  5
424
330
410
100
AcDbEntity
  8
1
  6
Continuous
 62
     1
100
AcDbLine
 10
7.825284686590422
 20
6.739630695597015
 30
0.0
 11
4.73956545466222
 21
3.810150412120876
 31
0.0
  0
LINE
  5
425
330
410
100
AcDbEntity
  8
1
  6
Continuous
 62
     1
100
AcDbLine
 10
4.73956545466222
 20
3.810150412120876
 30
0.0
 11
2.389675159112649
 21
0.8740208054048466
 31
0.0
  0
ARC
  5
426
330
410
100
AcDbEntity
  8
1
  6
Continuous
 62
     1
100
AcDbCircle
 10
5.468251597535687
 20
7.604411112198623
 30
0.0
 40
1.25
100
AcDbArc
 50
313.5121324711722
 51
39.48151864511218
  0
ARC
  5
427
330
410
100
AcDbEntity
  8
1
  6
Continuous
 62
     1
100
AcDbCircle
 10
5.468251597535687
 20
7.604411112198623
 30
0.0
 40
1.25
100
AcDbArc
 50
313.5121324711722
 51
39.48151864511218
  0
ARC
  5
428
330
410
100
AcDbEntity
  8
1
  6
Continuous
 62
     1
100
AcDbCircle
 10
6.964649487314372
 20
7.646166438834463
 30
0.0
 40
1.25
100
AcDbArc
 50
313.5121324711721
 51
35.31121343963311
  0
ARC
  5
429
330
410
100
AcDbEntity
  8
1
  6
Continuous
 62
     1
100
AcDbCircle
 10
6.964649487314372
 20
7.646166438834463
 30
0.0
 40
1.25
100
AcDbArc
 50
313.5121324711721
 51
35.31121343963311
  0
ARC
  5
42A
330
410
100
AcDbEntity
  8
1
  6
Continuous
 62
     1
100
AcDbCircle
 10
0.600000184379283
 20
16.50000092089764
 30
0.0
 40
0.6
100
AcDbArc
 50
180.0
 51
270.0
  0
ARC
  5
42B
330
410
100
AcDbEntity
  8
1
  6
Continuous
 62
     1
100
AcDbCircle
 10
0.600000184379283
 20
16.50000092089764
 30
0.0
 40
0.6
100
AcDbArc
 50
180.0
 51
270.0
  0
ARC
  5
42C
330
410
100
AcDbEntity
  8
1
  6
Continuous
 62
     1
100
AcDbCircle
 10
0.600000184379283
 20
16.90000092089764
 30
0.0
 40
0.6
100
AcDbArc
 50
90.0
 51
180.0
  0
ARC
  5
42D
330
410
100
AcDbEntity
  8
1
  6
Continuous
 62
     1
100
AcDbCircle
 10
0.600000184379283
 20
16.90000092089764
 30
0.0
 40
0.6
100
AcDbArc
 50
90.0
 51
180.0
  0
ARC
  5
42E
330
410
100
AcDbEntity
  8
1
  6
Continuous
 62
     1
100
AcDbCircle
 10
4.40000018437928
 20
16.90000092089764
 30
0.0
 40
0.6
100
AcDbArc
 50
0.0
 51
90.0
  0
ARC
  5
42F
330
410
100
AcDbEntity
  8
1
  6
Continuous
 62
     1
100
AcDbCircle
 10
4.40000018437928
 20
16.90000092089764
 30
0.0
 40
0.6
100
AcDbArc
 50
0.0
 51
90.0
  0
ARC
  5
430
330
410
100
AcDbEntity
  8
1
  6
Continuous
 62
     1
100
AcDbCircle
 10
4.40000018437928
 20
16.50000092089764
 30
0.0
 40
0.6
100
AcDbArc
 50
270.0
 51
0.0
  0
ARC
  5
431
330
410
100
AcDbEntity
  8
1
  6
Continuous
 62
     1
100
AcDbCircle
 10
4.40000018437928
 20
16.50000092089764
 30
0.0
 40
0.6
100
AcDbArc
 50
270.0
 51
0.0
  0
LINE
  5
432
330
410
100
AcDbEntity
  8
1
  6
Continuous
 62
     1
100
AcDbLine
 10
0.0000001843792816
 20
15.90000092089764
 30
0.0
 11
0.0000001843792816
 21
15.90000092089764
 31
0.0
  0
LINE
  5
433
330
410
100
AcDbEntity
  8
1
  6
Continuous
 62
     1
100
AcDbLine
 10
0.0000001843792816
 20
17.50000092089764
 30
0.0
 11
0.0000001843792816
 21
17.50000092089764
 31
0.0
  0
LINE
  5
434
330
410
100
AcDbEntity
  8
1
  6
Continuous
 62
     1
100
AcDbLine
 10
5.000000184379282
 20
17.50000092089764
 30
0.0
 11
5.000000184379282
 21
17.50000092089764
 31
0.0
  0
LINE
  5
435
330
410
100
AcDbEntity
  8
1
  6
Continuous
 62
     1
100
AcDbLine
 10
5.000000184379282
 20
15.90000092089764
 30
0.0
 11
5.000000184379282
 21
15.90000092089764
 31
0.0
  0
LINE
  5
436
330
410
100
AcDbEntity
  8
1
  6
Continuous
 62
     1
100
AcDbLine
 10
0.7500001843792816
 20
16.70000092089764
 30
0.0
 11
0.7500001843792816
 21
16.70000092089764
 31
0.0
  0
LINE
  5
437
330
410
100
AcDbEntity
  8
1
  6
Continuous
 62
     1
100
AcDbLine
 10
4.250000184379282
 20
16.70000092089764
 30
0.0
 11
4.250000184379282
 21
16.70000092089764
 31
0.0
  0
ENDBLK
  5
412
330
410
100
AcDbEntity
  8
0
100
AcDbBlockEnd
  0
BLOCK
  5
439
330
438
100
AcDbEntity
  8
0
100
AcDbBlockBegin
  2
GEN_BLOCK00010
 70
     0
 10
0.0
 20
0.0
 30
0.0
  3
GEN_BLOCK00010
  1
GEN_BLOCK00010
  0
LINE
  5
43C
330
438
100
AcDbEntity
  8
1
  6
HIDDEN
 62
     1
100
AcDbLine
 10
12.4188871383667
 20
46.86039352416992
 30
0.0
 11
26.15638732910156
 21
46.86039352416992
 31
0.0
  0
LINE
  5
43D
330
438
100
AcDbEntity
  8
1
  6
HIDDEN
 62
     1
100
AcDbLine
 10
26.15638732910156
 20
46.86039352416992
 30
0.0
 11
26.15638732910156
 21
56.54789352416992
 31
0.0
  0
LINE
  5
43E
330
438
100
AcDbEntity
  8
1
  6
HIDDEN
 62
     1
100
AcDbLine
 10
26.15638732910156
 20
56.54789352416992
 30
0.0
 11
12.4188871383667
 21
56.54789352416992
 31
0.0
  0
LINE
  5
43F
330
438
100
AcDbEntity
  8
1
  6
HIDDEN
 62
     1
100
AcDbLine
 10
12.4188871383667
 20
56.54789352416992
 30
0.0
 11
12.4188871383667
 21
46.86039352416992
 31
0.0
  0
TEXT
  5
440
330
438
100
AcDbEntity
  8
1
  6
Continuous
 62
     4
100
AcDbText
 10
13.79263687133789
 20
52.95414352416992
 30
0.0
 40
2.5
  1
44mm
100
AcDbText
  0
TEXT
  5
441
330
438
100
AcDbEntity
  8
1
  6
Continuous
 62
     4
100
AcDbText
 10
13.79263687133789
 20
47.95414352416992
 30
0.0
 40
2.5
  1
DOOR
100
AcDbText
  0
LINE
  5
442
330
438
100
AcDbEntity
  8
1
  6
HIDDEN
 62
     1
100
AcDbLine
 10
0.0000006035047022
 20
99.99999885525864
 30
0.0
 11
17.18078819624591
 21
95.57525494583362
 31
0.0
  0
LINE
  5
443
330
438
100
AcDbEntity
  8
1
  6
HIDDEN
 62
     1
100
AcDbLine
 10
17.18078819624591
 20
95.57525494583362
 30
0.0
 11
17.18078819624591
 21
92.00877989310047
 31
0.0
  0
LINE
  5
444
330
438
100
AcDbEntity
  8
1
  6
HIDDEN
 62
     1
100
AcDbLine
 10
17.18078819624591
 20
92.00877989310047
 30
0.0
 11
44.0000006035047
 21
95.57525494583362
 31
0.0
  0
LINE
  5
445
330
438
100
AcDbEntity
  8
1
  6
HIDDEN
 62
     1
100
AcDbLine
 10
0.0000006035047022
 20
99.99999885525864
 30
0.0
 11
0.0000006035047022
 21
-0.0000011447413613
 31
0.0
  0
LINE
  5
446
330
438
100
AcDbEntity
  8
1
  6
HIDDEN
 62
     1
100
AcDbLine
 10
0.0000006035047022
 20
-0.0000011447413613
 30
0.0
 11
44.0000006035047
 21
-0.0000011447413684
 31
0.0
  0
LINE
  5
447
330
438
100
AcDbEntity
  8
1
  6
HIDDEN
 62
     1
100
AcDbLine
 10
44.0000006035047
 20
-0.0000011447413684
 30
0.0
 11
44.0000006035047
 21
95.57525494583362
 31
0.0
  0
ENDBLK
  5
43A
330
438
100
AcDbEntity
  8
0
100
AcDbBlockEnd
  0
BLOCK
  5
449
330
448
100
AcDbEntity
  8
0
100
AcDbBlockBegin
  2
GEN_BLOCK00011
 70
     0
 10
0.0
 20
0.0
 30
0.0
  3
GEN_BLOCK00011
  1
GEN_BLOCK00011
  0
LINE
  5
44C
330
448
100
AcDbEntity
  8
1
  6
Continuous
 62
     3
100
AcDbLine
 10
-0.0000014060007985
 20
-0.0000011447413684
 30
0.0
 11
0.4999985939992015
 21
0.4999988552586316
 31
0.0
  0
ENDBLK
  5
44A
330
448
100
AcDbEntity
  8
0
100
AcDbBlockEnd
  0
BLOCK
  5
44E
330
44D
100
AcDbEntity
  8
0
100
AcDbBlockBegin
  2
GEN_BLOCK00012
 70
     0
 10
0.0
 20
0.0
 30
0.0
  3
GEN_BLOCK00012
  1
GEN_BLOCK00012
  0
LINE
  5
451
330
44D
100
AcDbEntity
  8
1
  6
Continuous
 62
     3
100
AcDbLine
 10
-0.0000014060007985
 20
0.4999988552586316
 30
0.0
 11
0.4999985939992015
 21
-0.0000011447413684
 31
0.0
  0
ENDBLK
  5
44F
330
44D
100
AcDbEntity
  8
0
100
AcDbBlockEnd
  0
BLOCK
  5
453
330
452
100
AcDbEntity
  8
0
100
AcDbBlockBegin
  2
PROTO
 70
     2
 10
0.0
 20
0.0
 30
0.0
  3
PROTO
  1
PROTO
  0
ATTDEF
  5
455
330
452
100
AcDbEntity
  8
0
100
AcDbText
 10
0.0
 20
0.0
 30
0.0
 40
1.0
  1

100
AcDbAttributeDefinition
  3
Enter PAT_NAME
  2
PAT_NAME
 70
     0
280
     0
  0
TEXT
  5
459
330
452
100
AcDbEntity
  8
0
  6
Continuous
 62
    15
100
AcDbText
 10
40.16593504470879
 20
6.753997802734375
 30
0.0
 40
1.759999990463257
  1
Mountplesent, Dundalk, Ireland
  7
ARIAL
100
AcDbText
  0
TEXT
  5
45A
330
452
100
AcDbEntity
  8
0
  6
Continuous
 62
    15
100
AcDbText
 10
42.0896207196308
 20
3.76199746131897
 30
0.0
 40
1.759999990463257
  1
Telephone (353/42) 9371244
  7
ARIAL
100
AcDbText
  0
TEXT
  5
45B
330
452
100
AcDbEntity
  8
0
  6
Continuous
 62
    15
100
AcDbText
 10
46.41791348820533
 20
0.7699971199035645
 30
0.0
 40
1.759999990463257
  1
Fax (353/42) 9371221
  7
ARIAL
100
AcDbText
  0
TEXT
  5
45C
330
452
100
AcDbEntity
  8
0
  6
Continuous
 62
    16
100
AcDbText
 10
39.8453207655551
 20
11.70731353759766
 30
0.0
 40
3.529999971389771
  1
EXITEX LTD
  7
CALISTB
100
AcDbText
  0
TEXT
  5
45D
330
452
100
AcDbEntity
  8
0
  6
Continuous
 62
    15
100
AcDbText
 10
118.7618846893311
 20
5.154260873794556
 30
0.0
 40
1.759999990463257
  1
DESCRIPTION
  7
ARIAL
100
AcDbText
  0
TEXT
  5
45E
330
452
100
AcDbEntity
  8
0
  6
Continuous
 62
    15
100
AcDbText
 10
118.7618846893311
 20
15.30853486061096
 30
0.0
 40
1.759999990463257
  1
CODE
  7
ARIAL
100
AcDbText
  0
TEXT
  5
45F
330
452
100
AcDbEntity
  8
0
  6
Continuous
 62
    15
100
AcDbText
 10
105.5696954727173
 20
35.30853486061096
 30
0.0
 40
1.759999990463257
  1
TOLERANCE
  7
ARIAL
100
AcDbText
  0
TEXT
  5
460
330
452
100
AcDbEntity
  8
0
  6
Continuous
 62
    15
100
AcDbText
 10
105.5696954727173
 20
25.15426087379456
 30
0.0
 40
1.759999990463257
  1
DRAWN
  7
ARIAL
100
AcDbText
  0
TEXT
  5
461
330
452
100
AcDbEntity
  8
0
  6
Continuous
 62
    15
100
AcDbText
 10
137.2723236083984
 20
25.15426087379456
 30
0.0
 40
1.759999990463257
  1
DRAWING No
  7
ARIAL
100
AcDbText
  0
TEXT
  5
462
330
452
100
AcDbEntity
  8
0
  6
Continuous
 62
    15
100
AcDbText
 10
137.2723236083984
 20
35.30853486061096
 30
0.0
 40
1.759999990463257
  1
SCALE
  7
ARIAL
100
AcDbText
  0
TEXT
  5
463
330
452
100
AcDbEntity
  8
0
  6
Continuous
 62
    15
100
AcDbText
 10
168.3235168457031
 20
35.30853486061096
 30
0.0
 40
1.759999990463257
  1
APPROVED
  7
ARIAL
100
AcDbText
  0
TEXT
  5
464
330
452
100
AcDbEntity
  8
0
  6
Continuous
 62
    15
100
AcDbText
 10
168.3235168457031
 20
25.15426087379456
 30
0.0
 40
1.759999990463257
  1
DATE
  7
ARIAL
100
AcDbText
  0
TEXT
  5
465
330
452
100
AcDbEntity
  8
0
  6
Continuous
 62
    15
100
AcDbText
 10
121.7818927764893
 20
273.1621387004852
 30
0.0
 40
1.059999942779541
  1
DATE
  7
ARIAL
100
AcDbText
  0
TEXT
  5
466
330
452
100
AcDbEntity
  8
0
  6
Continuous
 62
    15
100
AcDbText
 10
129.7819023132324
 20
273.1621387004852
 30
0.0
 40
1.059999942779541
  1
ISSUE
  7
ARIAL
100
AcDbText
  0
TEXT
  5
467
330
452
100
AcDbEntity
  8
0
  6
Continuous
 62
    15
100
AcDbText
 10
153.1009712219238
 20
273.1621387004852
 30
0.0
 40
1.059999942779541
  1
CHANGE
  7
ARIAL
100
AcDbText
  0
TEXT
  5
468
330
452
100
AcDbEntity
  8
0
  6
Continuous
 62
    15
100
AcDbText
 10
185.7818908691406
 20
273.1621387004852
 30
0.0
 40
1.059999942779541
  1
SIGNED
  7
ARIAL
100
AcDbText
  0
TEXT
  5
469
330
452
100
AcDbEntity
  8
0
  6
Continuous
 62
    15
100
AcDbText
 10
0.5771026611328125
 20
273.5897967815399
 30
0.0
 40
1.059999942779541
  1
THIS DRAWING  IS  THE PROPERTY OF  EXITEX  LTD  AND  MUST
  7
ARIAL
100
AcDbText
  0
TEXT
  5
46A
330
452
100
AcDbEntity
  8
0
  6
Continuous
 62
    15
100
AcDbText
 10
0.5771026611328125
 20
271.7877966165543
 30
0.0
 40
1.059999942779541
  1
NOT BE REPRODUCED IN WHOLE OR IN PART WITHOUT CONSENT
  7
ARIAL
100
AcDbText
  0
TEXT
  5
46B
330
452
100
AcDbEntity
  8
0
  6
Continuous
 62
    15
100
AcDbText
 10
0.5771026611328125
 20
269.9857964515686
 30
0.0
 40
1.059999942779541
  1
C  COPYRIGHT EXITEX.
  7
ARIAL
100
AcDbText
  0
LINE
  5
46C
330
452
100
AcDbEntity
  8
0
  6
Continuous
 62
     2
100
AcDbLine
 10
129.781898560639
 20
276.1921336964456
 30
0.0
 11
129.781898560639
 21
262.1111545106998
 31
0.0
  0
LINE
  5
46D
330
452
100
AcDbEntity
  8
0
  6
Continuous
 62
     2
100
AcDbLine
 10
137.781898560639
 20
276.1921336964456
 30
0.0
 11
137.781898560639
 21
262.1111545106998
 31
0.0
  0
LINE
  5
46E
330
452
100
AcDbEntity
  8
0
  6
Continuous
 62
     2
100
AcDbLine
 10
185.7818985606389
 20
276.1921336964456
 30
0.0
 11
185.7818985606389
 21
262.1111545106998
 31
0.0
  0
LINE
  5
46F
330
452
100
AcDbEntity
  8
0
  6
Continuous
 62
     2
100
AcDbLine
 10
197.7818985606389
 20
271.1921336964456
 30
0.0
 11
121.781898560639
 21
271.1921336964456
 31
0.0
  0
LINE
  5
470
330
452
100
AcDbEntity
  8
0
  6
Continuous
 62
     2
100
AcDbLine
 10
121.781898560639
 20
276.1921336964456
 30
0.0
 11
121.781898560639
 21
262.1111545106998
 31
0.0
  0
CIRCLE
  5
471
330
452
100
AcDbEntity
  8
0
  6
Continuous
 62
     1
100
AcDbCircle
 10
1.347817173474709
 20
270.4871209009121
 30
0.0
 40
0.7858324255611161
  0
ARC
  5
472
330
452
100
AcDbEntity
  8
0
  6
Continuous
 62
     1
100
AcDbCircle
 10
1.347817173474709
 20
270.4871209009121
 30
0.0
 40
0.7858324255611161
100
AcDbArc
 50
0.0
 51
0.0
  0
ENDBLK
  5
454
330
452
100
AcDbEntity
  8
0
100
AcDbBlockEnd
  0
BLOCK
  5
474
330
473
100
AcDbEntity
  8
0
100
AcDbBlockBegin
  2
GEN_BLOCK00013
 70
     0
 10
0.0
 20
0.0
 30
0.0
  3
GEN_BLOCK00013
  1
GEN_BLOCK00013
  0
LINE
  5
477
330
473
100
AcDbEntity
  8
1
  6
Continuous
 62
     3
100
AcDbLine
 10
-0.0000014060007985
 20
0.4999988552586316
 30
0.0
 11
0.4999985939992015
 21
-0.0000011447413684
 31
0.0
  0
ENDBLK
  5
475
330
473
100
AcDbEntity
  8
0
100
AcDbBlockEnd
  0
BLOCK
  5
479
330
478
100
AcDbEntity
  8
0
100
AcDbBlockBegin
  2
GEN_BLOCK00014
 70
     0
 10
0.0
 20
0.0
 30
0.0
  3
GEN_BLOCK00014
  1
GEN_BLOCK00014
  0
LINE
  5
47C
330
478
100
AcDbEntity
  8
1
  6
Continuous
 62
     3
100
AcDbLine
 10
-0.0000014060007985
 20
0.4999988552586316
 30
0.0
 11
0.4999985939992015
 21
-0.0000011447413684
 31
0.0
  0
ENDBLK
  5
47A
330
478
100
AcDbEntity
  8
0
100
AcDbBlockEnd
  0
BLOCK
  5
47E
330
47D
100
AcDbEntity
  8
0
100
AcDbBlockBegin
  2
GEN_BLOCK00015
 70
     0
 10
0.0
 20
0.0
 30
0.0
  3
GEN_BLOCK00015
  1
GEN_BLOCK00015
  0
LINE
  5
481
330
47D
100
AcDbEntity
  8
1
  6
Continuous
 62
     3
100
AcDbLine
 10
9.726545979204701
 20
5.274037841230221
 30
0.0
 11
8.547604062960328
 21
3.232050543122455
 31
0.0
  0
ARC
  5
482
330
47D
100
AcDbEntity
  8
1
  6
Continuous
 62
     3
100
AcDbCircle
 10
9.413629466744759
 20
2.73205054312244
 30
0.0
 40
1.0
100
AcDbArc
 50
149.9999999999991
 51
180.0
  0
ARC
  5
483
330
47D
100
AcDbEntity
  8
1
  6
Continuous
 62
     3
100
AcDbCircle
 10
9.413629466744759
 20
2.73205054312244
 30
0.0
 40
1.0
100
AcDbArc
 50
149.9999999999991
 51
180.0
  0
LINE
  5
484
330
47D
100
AcDbEntity
  8
1
  6
Continuous
 62
     3
100
AcDbLine
 10
8.413629466744759
 20
2.73205054312244
 30
0.0
 11
8.413629466744759
 21
0.9999997355535228
 31
0.0
  0
ARC
  5
485
330
47D
100
AcDbEntity
  8
1
  6
Continuous
 62
     3
100
AcDbCircle
 10
7.413629466744759
 20
0.9999997355535228
 30
0.0
 40
1.0
100
AcDbArc
 50
270.0
 51
0.0
  0
ARC
  5
486
330
47D
100
AcDbEntity
  8
1
  6
Continuous
 62
     3
100
AcDbCircle
 10
7.413629466744759
 20
0.9999997355535228
 30
0.0
 40
1.0
100
AcDbArc
 50
270.0
 51
0.0
  0
LINE
  5
487
330
47D
100
AcDbEntity
  8
1
  6
Continuous
 62
     3
100
AcDbLine
 10
7.413629466744759
 20
-0.0000002644464772
 30
0.0
 11
5.931023309229246
 21
-0.0000002644464772
 31
0.0
  0
LINE
  5
488
330
47D
100
AcDbEntity
  8
1
  6
Continuous
 62
     3
100
AcDbLine
 10
2.713629466744759
 20
-0.0000002644464772
 30
0.0
 11
1.313629466744757
 21
-0.0000002644464772
 31
0.0
  0
ARC
  5
489
330
47D
100
AcDbEntity
  8
1
  6
Continuous
 62
     3
100
AcDbCircle
 10
1.313629466744757
 20
0.9999997355535228
 30
0.0
 40
1.0
100
AcDbArc
 50
180.0
 51
270.0
  0
ARC
  5
48A
330
47D
100
AcDbEntity
  8
1
  6
Continuous
 62
     3
100
AcDbCircle
 10
1.313629466744757
 20
0.9999997355535228
 30
0.0
 40
1.0
100
AcDbArc
 50
180.0
 51
270.0
  0
LINE
  5
48B
330
47D
100
AcDbEntity
  8
1
  6
Continuous
 62
     3
100
AcDbLine
 10
0.3136294667447572
 20
0.9999997355535228
 30
0.0
 11
0.3136294667447572
 21
3.299999735553524
 31
0.0
  0
ARC
  5
48C
330
47D
100
AcDbEntity
  8
1
  6
Continuous
 62
     3
100
AcDbCircle
 10
1.313629466744757
 20
3.299999735553524
 30
0.0
 40
1.0
100
AcDbArc
 50
90.0
 51
180.0
  0
ARC
  5
48D
330
47D
100
AcDbEntity
  8
1
  6
Continuous
 62
     3
100
AcDbCircle
 10
1.313629466744757
 20
3.299999735553524
 30
0.0
 40
1.0
100
AcDbArc
 50
90.0
 51
180.0
  0
LINE
  5
48E
330
47D
100
AcDbEntity
  8
1
  6
Continuous
 62
     3
100
AcDbLine
 10
1.313629466744757
 20
4.299999735553524
 30
0.0
 11
7.085723847608623
 21
4.29999973555352
 31
0.0
  0
ARC
  5
48F
330
47D
100
AcDbEntity
  8
1
  6
Continuous
 62
     3
100
AcDbCircle
 10
7.085723847608623
 20
5.29999973555352
 30
0.0
 40
1.0
100
AcDbArc
 50
270.0
 51
329.9999999999986
  0
ARC
  5
490
330
47D
100
AcDbEntity
  8
1
  6
Continuous
 62
     3
100
AcDbCircle
 10
7.085723847608623
 20
5.29999973555352
 30
0.0
 40
1.0
100
AcDbArc
 50
270.0
 51
329.9999999999986
  0
LINE
  5
491
330
47D
100
AcDbEntity
  8
1
  6
Continuous
 62
     3
100
AcDbLine
 10
7.95174925139305
 20
4.799999735553499
 30
0.0
 11
8.450712954284853
 21
5.664230220094751
 31
0.0
  0
ARC
  5
492
330
47D
100
AcDbEntity
  8
1
  6
Continuous
 62
     3
100
AcDbCircle
 10
6.01362946674476
 20
0.4999997355535157
 30
0.0
 40
0.5000000000000036
100
AcDbArc
 50
90.0
 51
270.0
  0
ARC
  5
493
330
47D
100
AcDbEntity
  8
1
  6
Continuous
 62
     3
100
AcDbCircle
 10
6.01362946674476
 20
0.4999997355535157
 30
0.0
 40
0.5000000000000036
100
AcDbArc
 50
90.0
 51
270.0
  0
LINE
  5
494
330
47D
100
AcDbEntity
  8
1
  6
Continuous
 62
     3
100
AcDbLine
 10
6.01362946674476
 20
0.9999997355535228
 30
0.0
 11
6.213629466744798
 21
0.99999973555353
 31
0.0
  0
ARC
  5
495
330
47D
100
AcDbEntity
  8
1
  6
Continuous
 62
     3
100
AcDbCircle
 10
6.213629466744798
 20
2.149999735553489
 30
0.0
 40
1.149999999999959
100
AcDbArc
 50
270.0
 51
90.0
  0
ARC
  5
496
330
47D
100
AcDbEntity
  8
1
  6
Continuous
 62
     3
100
AcDbCircle
 10
6.213629466744798
 20
2.149999735553489
 30
0.0
 40
1.149999999999959
100
AcDbArc
 50
270.0
 51
90.0
  0
LINE
  5
497
330
47D
100
AcDbEntity
  8
1
  6
Continuous
 62
     3
100
AcDbLine
 10
6.213629466744798
 20
3.299999735553449
 30
0.0
 11
2.513629466744721
 21
3.299999735553449
 31
0.0
  0
ARC
  5
498
330
47D
100
AcDbEntity
  8
1
  6
Continuous
 62
     3
100
AcDbCircle
 10
2.513629466744721
 20
2.149999735553486
 30
0.0
 40
1.149999999999963
100
AcDbArc
 50
90.0
 51
259.9767958680774
  0
ARC
  5
499
330
47D
100
AcDbEntity
  8
1
  6
Continuous
 62
     3
100
AcDbCircle
 10
2.513629466744721
 20
2.149999735553486
 30
0.0
 40
1.149999999999963
100
AcDbArc
 50
90.0
 51
259.9767958680774
  0
ARC
  5
49A
330
47D
100
AcDbEntity
  8
1
  6
Continuous
 62
     3
100
AcDbCircle
 10
2.513629466744721
 20
2.149999735553486
 30
0.0
 40
1.149999999999963
100
AcDbArc
 50
90.0
 51
270.0
  0
ARC
  5
49B
330
47D
100
AcDbEntity
  8
1
  6
Continuous
 62
     3
100
AcDbCircle
 10
2.513629466744721
 20
2.149999735553486
 30
0.0
 40
1.149999999999963
100
AcDbArc
 50
90.0
 51
270.0
  0
LINE
  5
49C
330
47D
100
AcDbEntity
  8
1
  6
Continuous
 62
     3
100
AcDbLine
 10
2.513629466744721
 20
0.9999997355535228
 30
0.0
 11
2.713629466744759
 21
0.9999997355535228
 31
0.0
  0
ARC
  5
49D
330
47D
100
AcDbEntity
  8
1
  6
Continuous
 62
     3
100
AcDbCircle
 10
2.713629466744759
 20
0.4999997355535228
 30
0.0
 40
0.5
100
AcDbArc
 50
270.0
 51
90.0
  0
ARC
  5
49E
330
47D
100
AcDbEntity
  8
1
  6
Continuous
 62
     3
100
AcDbCircle
 10
2.713629466744759
 20
0.4999997355535228
 30
0.0
 40
0.5
100
AcDbArc
 50
270.0
 51
90.0
  0
LINE
  5
49F
330
47D
100
AcDbEntity
  8
1
  6
Continuous
 62
     1
100
AcDbLine
 10
6.113629466744825
 20
28.59583667951926
 30
0.0
 11
6.113629466744825
 21
26.16421652395137
 31
0.0
  0
LINE
  5
4A0
330
47D
100
AcDbEntity
  8
1
  6
Continuous
 62
     1
100
AcDbLine
 10
5.117182857338136
 20
29.7993900701125
 30
0.0
 11
5.967182857338045
 21
28.94939007011259
 31
0.0
  0
LINE
  5
4A1
330
47D
100
AcDbEntity
  8
1
  6
Continuous
 62
     1
100
AcDbLine
 10
0.3136294667447608
 20
34.60294346070577
 30
0.0
 11
0.3136294667447608
 21
32.48284244802812
 31
0.0
  0
LINE
  5
4A2
330
47D
100
AcDbEntity
  8
1
  6
Continuous
 62
     1
100
AcDbLine
 10
1.753629466744812
 20
25.99999973555349
 30
0.0
 11
0.3136294667447572
 21
25.99999973555349
 31
0.0
  0
LINE
  5
4A3
330
47D
100
AcDbEntity
  8
1
  6
Continuous
 62
     1
100
AcDbLine
 10
0.3136294667447572
 20
25.99999973555349
 30
0.0
 11
1.753629466744812
 21
25.99999973555349
 31
0.0
  0
LINE
  5
4A4
330
47D
100
AcDbEntity
  8
1
  6
Continuous
 62
     1
100
AcDbLine
 10
1.615101329321014
 20
33.30147159812963
 30
0.0
 11
0.6550508229820942
 21
32.34142109179083
 31
0.0
  0
LINE
  5
4A5
330
47D
100
AcDbEntity
  8
1
  6
Continuous
 62
     1
100
AcDbLine
 10
0.3136294667447572
 20
25.99999973555349
 30
0.0
 11
0.3136294667447572
 21
16.07794522702181
 31
0.0
  0
ARC
  5
4A6
330
47D
100
AcDbEntity
  8
1
  6
Continuous
 62
     1
100
AcDbCircle
 10
6.713629466744848
 20
24.09999973555352
 30
0.0
 40
0.600000000000001
100
AcDbArc
 50
180.0
 51
0.0
  0
ARC
  5
4A7
330
47D
100
AcDbEntity
  8
1
  6
Continuous
 62
     1
100
AcDbCircle
 10
6.713629466744848
 20
24.09999973555352
 30
0.0
 40
0.600000000000001
100
AcDbArc
 50
180.0
 51
0.0
  0
LINE
  5
4A8
330
47D
100
AcDbEntity
  8
1
  6
Continuous
 62
     1
100
AcDbLine
 10
3.563629466744757
 20
27.99999973555349
 30
0.0
 11
3.563629466744757
 21
31.35294346070577
 31
0.0
  0
LINE
  5
4A9
330
47D
100
AcDbEntity
  8
1
  6
Continuous
 62
     1
100
AcDbLine
 10
4.263629466744803
 20
28.11661877345033
 30
0.0
 11
4.263629466744803
 21
29.44583667951928
 31
0.0
  0
ARC
  5
4AA
330
47D
100
AcDbEntity
  8
1
  6
Continuous
 62
     1
100
AcDbCircle
 10
3.933629466744875
 20
27.99999973555349
 30
0.0
 40
4.158445537778243
100
AcDbArc
 50
249.6499079772539
 51
301.6167144667129
  0
ARC
  5
4AB
330
47D
100
AcDbEntity
  8
1
  6
Continuous
 62
     1
100
AcDbCircle
 10
3.933629466744875
 20
27.99999973555349
 30
0.0
 40
4.158445537778243
100
AcDbArc
 50
249.6499079772539
 51
301.6167144667129
  0
LINE
  5
4AC
330
47D
100
AcDbEntity
  8
1
  6
Continuous
 62
     1
100
AcDbLine
 10
6.113629466744825
 20
24.45877547116867
 30
0.0
 11
6.113629466744825
 21
24.09999973555352
 31
0.0
  0
ARC
  5
4AD
330
47D
100
AcDbEntity
  8
1
  6
Continuous
 62
     1
100
AcDbCircle
 10
5.613629466744825
 20
28.59583667951926
 30
0.0
 40
0.5
100
AcDbArc
 50
0.0
 51
45.0
  0
ARC
  5
4AE
330
47D
100
AcDbEntity
  8
1
  6
Continuous
 62
     1
100
AcDbCircle
 10
5.613629466744825
 20
28.59583667951926
 30
0.0
 40
0.5
100
AcDbArc
 50
0.0
 51
45.0
  0
ARC
  5
4AF
330
47D
100
AcDbEntity
  8
1
  6
Continuous
 62
     1
100
AcDbCircle
 10
4.763629466744803
 20
29.44583667951928
 30
0.0
 40
0.5
100
AcDbArc
 50
45.0
 51
180.0
  0
ARC
  5
4B0
330
47D
100
AcDbEntity
  8
1
  6
Continuous
 62
     1
100
AcDbCircle
 10
4.763629466744803
 20
29.44583667951928
 30
0.0
 40
0.5
100
AcDbArc
 50
45.0
 51
180.0
  0
LINE
  5
4B1
330
47D
100
AcDbEntity
  8
1
  6
Continuous
 62
     1
100
AcDbLine
 10
3.563629466744757
 20
31.35294346070577
 30
0.0
 11
1.615101329321014
 21
33.30147159812963
 31
0.0
  0
LINE
  5
4B2
330
47D
100
AcDbEntity
  8
1
  6
Continuous
 62
     1
100
AcDbLine
 10
1.814405580004902
 20
20.74999973555349
 30
0.0
 11
1.564405580004902
 21
20.49999973555349
 31
0.0
  0
LINE
  5
4B3
330
47D
100
AcDbEntity
  8
1
  6
Continuous
 62
     1
100
AcDbLine
 10
1.564405580004902
 20
20.49999973555349
 30
0.0
 11
1.814405580004902
 21
20.24999973555349
 31
0.0
  0
LINE
  5
4B4
330
47D
100
AcDbEntity
  8
1
  6
Continuous
 62
     1
100
AcDbLine
 10
7.313629466744757
 20
29.29999973555356
 30
0.0
 11
7.313629466744757
 21
24.09999973555352
 31
0.0
  0
LINE
  5
4B5
330
47D
100
AcDbEntity
  8
1
  6
Continuous
 62
     1
100
AcDbLine
 10
2.813629466744757
 20
13.53760404258752
 30
0.0
 11
17.56362946674476
 21
5.021687572040598
 31
0.0
  0
LINE
  5
4B6
330
47D
100
AcDbEntity
  8
1
  6
Continuous
 62
     1
100
AcDbLine
 10
17.61362946674483
 20
2.856624062579492
 30
0.0
 11
17.61362946674483
 21
0.5999997355535172
 31
0.0
  0
LINE
  5
4B7
330
47D
100
AcDbEntity
  8
1
  6
Continuous
 62
     1
100
AcDbLine
 10
18.81362946674476
 20
2.856624062579492
 30
0.0
 11
18.81362946674476
 21
0.5999997355535172
 31
0.0
  0
LINE
  5
4B8
330
47D
100
AcDbEntity
  8
1
  6
Continuous
 62
     1
100
AcDbLine
 10
0.3136294667447572
 20
16.07794522702181
 30
0.0
 11
0.3136294667448709
 21
15.26965485015636
 31
0.0
  0
LINE
  5
4B9
330
47D
100
AcDbEntity
  8
1
  6
Continuous
 62
     1
100
AcDbLine
 10
13.14160948866574
 20
6.189101350691285
 30
0.0
 11
16.96362946674485
 21
3.982457087499249
 31
0.0
  0
ARC
  5
4BA
330
47D
100
AcDbEntity
  8
1
  6
Continuous
 62
     1
100
AcDbCircle
 10
16.31362946674476
 20
2.856624062579492
 30
0.0
 40
2.5
100
AcDbArc
 50
0.0
 51
60.0
  0
ARC
  5
4BB
330
47D
100
AcDbEntity
  8
1
  6
Continuous
 62
     1
100
AcDbCircle
 10
16.31362946674476
 20
2.856624062579492
 30
0.0
 40
2.5
100
AcDbArc
 50
0.0
 51
60.0
  0
ARC
  5
4BC
330
47D
100
AcDbEntity
  8
1
  6
Continuous
 62
     1
100
AcDbCircle
 10
16.31362946674476
 20
2.856624062579492
 30
0.0
 40
1.3
100
AcDbArc
 50
0.0
 51
60.00000000000008
  0
ARC
  5
4BD
330
47D
100
AcDbEntity
  8
1
  6
Continuous
 62
     1
100
AcDbCircle
 10
16.31362946674476
 20
2.856624062579492
 30
0.0
 40
1.3
100
AcDbArc
 50
0.0
 51
60.00000000000008
  0
ARC
  5
4BE
330
47D
100
AcDbEntity
  8
1
  6
Continuous
 62
     1
100
AcDbCircle
 10
18.21362946674485
 20
0.5999997355535172
 30
0.0
 40
0.599999999999995
100
AcDbArc
 50
180.0
 51
0.0
  0
ARC
  5
4BF
330
47D
100
AcDbEntity
  8
1
  6
Continuous
 62
     1
100
AcDbCircle
 10
18.21362946674485
 20
0.5999997355535172
 30
0.0
 40
0.599999999999995
100
AcDbArc
 50
180.0
 51
0.0
  0
LINE
  5
4C0
330
47D
100
AcDbEntity
  8
1
  6
Continuous
 62
     1
100
AcDbLine
 10
0.0068146320026479
 20
36.07902288354284
 30
0.0
 11
0.3136294667448745
 21
34.93397433176903
 31
0.0
  0
LINE
  5
4C1
330
47D
100
AcDbEntity
  8
1
  6
Continuous
 62
     1
100
AcDbLine
 10
0.3136294667447608
 20
34.60294346070577
 30
0.0
 11
0.3136294667448745
 21
34.93397433176903
 31
0.0
  0
ARC
  5
4C2
330
47D
100
AcDbEntity
  8
1
  6
Continuous
 62
     1
100
AcDbCircle
 10
0.1999997972604213
 20
36.13078669256333
 30
0.0
 40
0.2
100
AcDbArc
 50
44.99999999999712
 51
194.9999999999986
  0
ARC
  5
4C3
330
47D
100
AcDbEntity
  8
1
  6
Continuous
 62
     1
100
AcDbCircle
 10
0.1999997972604213
 20
36.13078669256333
 30
0.0
 40
0.2
100
AcDbArc
 50
44.99999999999712
 51
194.9999999999986
  0
ARC
  5
4C4
330
47D
100
AcDbEntity
  8
1
  6
Continuous
 62
     1
100
AcDbCircle
 10
0.5136294667448063
 20
32.48284244802812
 30
0.0
 40
0.2
100
AcDbArc
 50
180.0
 51
315.0
  0
ARC
  5
4C5
330
47D
100
AcDbEntity
  8
1
  6
Continuous
 62
     1
100
AcDbCircle
 10
0.5136294667448063
 20
32.48284244802812
 30
0.0
 40
0.2
100
AcDbArc
 50
180.0
 51
315.0
  0
LINE
  5
4C6
330
47D
100
AcDbEntity
  8
1
  6
Continuous
 62
     1
100
AcDbLine
 10
1.503629466744812
 20
25.99999973555349
 30
0.0
 11
0.3136294667447572
 21
25.99999973555349
 31
0.0
  0
ARC
  5
4C7
330
47D
100
AcDbEntity
  8
1
  6
Continuous
 62
     1
100
AcDbCircle
 10
3.933629466744875
 20
27.99999973555349
 30
0.0
 40
2.85
100
AcDbArc
 50
224.5679286494165
 51
319.8991887496326
  0
ARC
  5
4C8
330
47D
100
AcDbEntity
  8
1
  6
Continuous
 62
     1
100
AcDbCircle
 10
3.933629466744875
 20
27.99999973555349
 30
0.0
 40
2.85
100
AcDbArc
 50
224.5679286494165
 51
319.8991887496326
  0
LINE
  5
4C9
330
47D
100
AcDbEntity
  8
1
  6
Continuous
 62
     1
100
AcDbLine
 10
1.503629466744812
 20
25.99999973555349
 30
0.0
 11
1.903235416320101
 21
25.99999973555349
 31
0.0
  0
LINE
  5
4CA
330
47D
100
AcDbEntity
  8
1
  6
Continuous
 62
     1
100
AcDbLine
 10
0.3136294667447572
 20
25.99999973555349
 30
0.0
 11
0.5336294667447845
 21
25.99999973555349
 31
0.0
  0
LINE
  5
4CB
330
47D
100
AcDbEntity
  8
1
  6
Continuous
 62
     1
100
AcDbLine
 10
3.91362946674478
 20
27.64999973555347
 30
0.0
 11
3.91362946674478
 21
27.64999973555347
 31
0.0
  0
LINE
  5
4CC
330
47D
100
AcDbEntity
  8
1
  6
Continuous
 62
     1
100
AcDbLine
 10
4.263629466744803
 20
28.11661877345033
 30
0.0
 11
4.263629466744803
 21
27.99999973555349
 31
0.0
  0
LINE
  5
4CD
330
47D
100
AcDbEntity
  8
1
  6
Continuous
 62
     1
100
AcDbLine
 10
3.563629466744757
 20
27.99999973555349
 30
0.0
 11
3.563629466744757
 21
27.99999973555349
 31
0.0
  0
ARC
  5
4CE
330
47D
100
AcDbEntity
  8
1
  6
Continuous
 62
     1
100
AcDbCircle
 10
3.91362946674478
 20
27.99999973555349
 30
0.0
 40
0.35
100
AcDbArc
 50
180.0
 51
270.0
  0
ARC
  5
4CF
330
47D
100
AcDbEntity
  8
1
  6
Continuous
 62
     1
100
AcDbCircle
 10
3.91362946674478
 20
27.99999973555349
 30
0.0
 40
0.35
100
AcDbArc
 50
180.0
 51
270.0
  0
ARC
  5
4D0
330
47D
100
AcDbEntity
  8
1
  6
Continuous
 62
     1
100
AcDbCircle
 10
3.91362946674478
 20
27.99999973555349
 30
0.0
 40
0.35
100
AcDbArc
 50
270.0
 51
0.0
  0
ARC
  5
4D1
330
47D
100
AcDbEntity
  8
1
  6
Continuous
 62
     1
100
AcDbCircle
 10
3.91362946674478
 20
27.99999973555349
 30
0.0
 40
0.35
100
AcDbArc
 50
270.0
 51
0.0
  0
LINE
  5
4D2
330
47D
100
AcDbEntity
  8
1
  6
Continuous
 62
     1
100
AcDbLine
 10
2.063629466744871
 20
12.23856593691084
 30
0.0
 11
7.535649444823804
 21
9.079293729555882
 31
0.0
  0
ARC
  5
4D3
330
47D
100
AcDbEntity
  8
1
  6
Continuous
 62
     1
100
AcDbCircle
 10
3.813629466744871
 20
15.26965485015636
 30
0.0
 40
3.5
100
AcDbArc
 50
180.0
 51
240.0
  0
ARC
  5
4D4
330
47D
100
AcDbEntity
  8
1
  6
Continuous
 62
     1
100
AcDbCircle
 10
3.813629466744871
 20
15.26965485015636
 30
0.0
 40
3.5
100
AcDbArc
 50
180.0
 51
240.0
  0
LINE
  5
4D5
330
47D
100
AcDbEntity
  8
1
  6
Continuous
 62
     1
100
AcDbLine
 10
1.813629466744757
 20
20.24999973555349
 30
0.0
 11
1.813629466744757
 21
15.26965485015636
 31
0.0
  0
LINE
  5
4D6
330
47D
100
AcDbEntity
  8
1
  6
Continuous
 62
     1
100
AcDbLine
 10
1.813629466744757
 20
23.63230986235441
 30
0.0
 11
1.813629466744757
 21
20.74999973555349
 31
0.0
  0
ARC
  5
4D7
330
47D
100
AcDbEntity
  8
1
  6
Continuous
 62
     1
100
AcDbCircle
 10
3.813629466744757
 20
15.26965485015636
 30
0.0
 40
2.0
100
AcDbArc
 50
180.0
 51
240.0
  0
ARC
  5
4D8
330
47D
100
AcDbEntity
  8
1
  6
Continuous
 62
     1
100
AcDbCircle
 10
3.813629466744757
 20
15.26965485015636
 30
0.0
 40
2.0
100
AcDbArc
 50
180.0
 51
240.0
  0
ARC
  5
4D9
330
47D
100
AcDbEntity
  8
1
  6
Continuous
 62
     1
100
AcDbCircle
 10
2.313629466744757
 20
23.63230986235441
 30
0.0
 40
0.5
100
AcDbArc
 50
69.64990797725385
 51
180.0
  0
ARC
  5
4DA
330
47D
100
AcDbEntity
  8
1
  6
Continuous
 62
     1
100
AcDbCircle
 10
2.313629466744757
 20
23.63230986235441
 30
0.0
 40
0.5
100
AcDbArc
 50
69.64990797725385
 51
180.0
  0
LINE
  5
4DB
330
47D
100
AcDbEntity
  8
1
  6
Continuous
 62
     1
100
AcDbLine
 10
7.313629466744757
 20
29.29999973555356
 30
0.0
 11
0.3414211534977092
 21
36.27220804880061
 31
0.0
  0
LINE
  5
4DC
330
47D
100
AcDbEntity
  8
1
  6
Continuous
 62
     1
100
AcDbLine
 10
3.030135817690891
 20
13.41260404258752
 30
0.0
 11
4.010863385068475
 21
12.84638071756046
 31
0.0
  0
LINE
  5
4DD
330
47D
100
AcDbEntity
  8
1
  6
Continuous
 62
     1
100
AcDbLine
 10
2.280135817690891
 20
12.11356593691084
 30
0.0
 11
3.260863385068475
 21
11.54734261188377
 31
0.0
  0
LINE
  5
4DE
330
47D
100
AcDbEntity
  8
1
  6
Continuous
 62
     1
100
AcDbLine
 10
0.3136294667448709
 20
15.82794522702181
 30
0.0
 11
0.3136294667448709
 21
15.29350843595852
 31
0.0
  0
ARC
  5
4DF
330
47D
100
AcDbEntity
  8
1
  6
Continuous
 62
     3
100
AcDbCircle
 10
11.89160948866577
 20
4.024037841230172
 30
0.0
 40
2.5
100
AcDbArc
 50
60.00000000000075
 51
149.9999999999987
  0
ARC
  5
4E0
330
47D
100
AcDbEntity
  8
1
  6
Continuous
 62
     3
100
AcDbCircle
 10
11.89160948866577
 20
4.024037841230172
 30
0.0
 40
2.5
100
AcDbArc
 50
60.00000000000075
 51
149.9999999999987
  0
ARC
  5
4E1
330
47D
100
AcDbEntity
  8
1
  6
Continuous
 62
     1
100
AcDbCircle
 10
6.285649444823783
 20
6.914230220094797
 30
0.0
 40
2.5
100
AcDbArc
 50
329.9999999999988
 51
59.99999999999945
  0
ARC
  5
4E2
330
47D
100
AcDbEntity
  8
1
  6
Continuous
 62
     1
100
AcDbCircle
 10
6.285649444823783
 20
6.914230220094797
 30
0.0
 40
2.5
100
AcDbArc
 50
329.9999999999988
 51
59.99999999999945
  0
LINE
  5
4E3
330
47D
100
AcDbEntity
  8
1
  6
Continuous
 62
     3
100
AcDbLine
 10
18.81362946674476
 20
-0.0000002644464772
 30
0.0
 11
18.81362946674476
 21
-0.0000002644464772
 31
0.0
  0
LINE
  5
4E4
330
47D
100
AcDbEntity
  8
1
  6
Continuous
 62
     3
100
AcDbLine
 10
0.3136294667447572
 20
-0.0000002644464772
 30
0.0
 11
0.3136294667447572
 21
-0.0000002644464772
 31
0.0
  0
LINE
  5
4E5
330
47D
100
AcDbEntity
  8
1
  6
Continuous
 62
     3
100
AcDbLine
 10
0.1999997972604213
 20
36.33078669256333
 30
0.0
 11
0.1999997972604213
 21
36.33078669256333
 31
0.0
  0
ENDBLK
  5
47F
330
47D
100
AcDbEntity
  8
0
100
AcDbBlockEnd
  0
BLOCK
  5
4E7
330
4E6
100
AcDbEntity
  8
0
100
AcDbBlockBegin
  2
GEN_BLOCK00016
 70
     0
 10
0.0
 20
0.0
 30
0.0
  3
GEN_BLOCK00016
  1
GEN_BLOCK00016
  0
LINE
  5
4EA
330
4E6
100
AcDbEntity
  8
1
  6
Continuous
 62
     3
100
AcDbLine
 10
-0.0000014060007985
 20
0.4999988552586316
 30
0.0
 11
0.4999985939992015
 21
-0.0000011447413684
 31
0.0
  0
ENDBLK
  5
4E8
330
4E6
100
AcDbEntity
  8
0
100
AcDbBlockEnd
  0
BLOCK
  5
4EC
330
4EB
100
AcDbEntity
  8
0
100
AcDbBlockBegin
  2
GEN_BLOCK00017
 70
     0
 10
0.0
 20
0.0
 30
0.0
  3
GEN_BLOCK00017
  1
GEN_BLOCK00017
  0
LINE
  5
4EF
330
4EB
100
AcDbEntity
  8
1
  6
Continuous
 62
     3
100
AcDbLine
 10
-0.0000014060007985
 20
0.4999988552586316
 30
0.0
 11
0.4999985939992015
 21
-0.0000011447413684
 31
0.0
  0
ENDBLK
  5
4ED
330
4EB
100
AcDbEntity
  8
0
100
AcDbBlockEnd
  0
BLOCK
  5
4F1
330
4F0
100
AcDbEntity
  8
0
100
AcDbBlockBegin
  2
GEN_BLOCK00018
 70
     0
 10
0.0
 20
0.0
 30
0.0
  3
GEN_BLOCK00018
  1
GEN_BLOCK00018
  0
LINE
  5
4F4
330
4F0
100
AcDbEntity
  8
1
  6
Continuous
 62
     3
100
AcDbLine
 10
-0.0000014060007985
 20
-0.0000011447413684
 30
0.0
 11
0.4999985939992015
 21
0.4999988552586316
 31
0.0
  0
ENDBLK
  5
4F2
330
4F0
100
AcDbEntity
  8
0
100
AcDbBlockEnd
  0
ENDSEC
  0
SECTION
  2
ENTITIES
  0
INSERT
  5
78
330
1F
100
AcDbEntity
  8
0
100
AcDbBlockReference
  2
GEN_BLOCK
 10
-98.93606567382812
 20
-133.7571105957031
 30
0.0
  0
INSERT
  5
88
330
1F
100
AcDbEntity
  8
1
100
AcDbBlockReference
  2
GEN_BLOCK00000
 10
55.40718460083008
 20
-42.95242691040039
 30
0.0
  0
INSERT
  5
8D
330
1F
100
AcDbEntity
  8
1
100
AcDbBlockReference
  2
GEN_BLOCK00001
 10
56.40718460083008
 20
-42.95242691040039
 30
0.0
  0
INSERT
  5
92
330
1F
100
AcDbEntity
  8
1
100
AcDbBlockReference
  2
GEN_BLOCK00002
 10
56.90718460083008
 20
-42.95242691040039
 30
0.0
  0
INSERT
  5
99
330
1F
100
AcDbEntity
  8
FIXING
100
AcDbBlockReference
 66
     1
  2
8569S
 10
-49.5477294921875
 20
-132.7217712402344
 30
0.0
  0
ATTRIB
  5
9A
330
99
100
AcDbEntity
  8
FIXING
100
AcDbText
 10
0.0
 20
0.0
 30
0.0
 40
1.0
  1
8569S
100
AcDbAttribute
  2
PAT_NAME
 70
     1
280
     0
  0
SEQEND
  5
9B
330
99
100
AcDbEntity
  8
FIXING
  0
INSERT
  5
BD
330
1F
100
AcDbEntity
  8
GEN_LAYER
100
AcDbBlockReference
  2
GEN_BLOCK00003
 10
22.37562561035156
 20
1.626083374023438
 30
0.0
  0
INSERT
  5
E6
330
1F
100
AcDbEntity
  8
1
100
AcDbBlockReference
  2
GEN_BLOCK00004
 10
53.40718460083008
 20
-42.95242691040039
 30
0.0
  0
INSERT
  5
EB
330
1F
100
AcDbEntity
  8
0
100
AcDbBlockReference
  2
GEN_BLOCK00005
 10
-96.5875473022461
 20
-133.7571105957031
 30
0.0
  0
INSERT
  5
334
330
1F
100
AcDbEntity
  8
1
100
AcDbBlockReference
  2
GEN_BLOCK00006
 10
-64.59281921386719
 20
-43.45242691040039
 30
0.0
  0
INSERT
  5
3E3
330
1F
100
AcDbEntity
  8
GEN_LAYER
100
AcDbBlockReference
  2
GEN_BLOCK00007
 10
-73.23965454101562
 20
-43.45242691040039
 30
0.0
  0
INSERT
  5
40E
330
1F
100
AcDbEntity
  8
1
100
AcDbBlockReference
  2
GEN_BLOCK00008
 10
52.40718460083008
 20
-42.95242691040039
 30
0.0
  0
INSERT
  5
413
330
1F
100
AcDbEntity
  8
1
100
AcDbBlockReference
  2
GEN_BLOCK00009
 10
24.39084625244141
 20
-39.15771102905273
 30
0.0
  0
INSERT
  5
43B
330
1F
100
AcDbEntity
  8
1
100
AcDbBlockReference
  2
GEN_BLOCK00010
 10
-21.11117744445801
 20
-32.95242691040039
 30
0.0
  0
INSERT
  5
44B
330
1F
100
AcDbEntity
  8
1
100
AcDbBlockReference
  2
GEN_BLOCK00011
 10
54.40718460083008
 20
-42.95242691040039
 30
0.0
  0
INSERT
  5
450
330
1F
100
AcDbEntity
  8
1
100
AcDbBlockReference
  2
GEN_BLOCK00012
 10
52.90718460083008
 20
-42.95242691040039
 30
0.0
  0
INSERT
  5
456
330
1F
100
AcDbEntity
  8
0
100
AcDbBlockReference
 66
     1
  2
PROTO
 10
-97.69795227050781
 20
-131.8897857666016
 30
0.0
  0
ATTRIB
  5
457
330
456
100
AcDbEntity
  8
0
100
AcDbText
 10
0.0
 20
0.0
 30
0.0
 40
1.0
  1
PROTO
100
AcDbAttribute
  2
PAT_NAME
 70
     1
280
     0
  0
SEQEND
  5
458
330
456
100
AcDbEntity
  8
0
  0
INSERT
  5
476
330
1F
100
AcDbEntity
  8
1
100
AcDbBlockReference
  2
GEN_BLOCK00013
 10
53.90718460083008
 20
-42.95242691040039
 30
0.0
  0
INSERT
  5
47B
330
1F
100
AcDbEntity
  8
1
100
AcDbBlockReference
  2
GEN_BLOCK00014
 10
54.90718460083008
 20
-42.95242691040039
 30
0.0
  0
INSERT
  5
480
330
1F
100
AcDbEntity
  8
1
100
AcDbBlockReference
  2
GEN_BLOCK00015
 10
22.69583511352539
 20
-24.50752830505371
 30
0.0
  0
INSERT
  5
4E9
330
1F
100
AcDbEntity
  8
1
100
AcDbBlockReference
  2
GEN_BLOCK00016
 10
51.90718460083008
 20
-42.95242691040039
 30
0.0
  0
INSERT
  5
4EE
330
1F
100
AcDbEntity
  8
1
100
AcDbBlockReference
  2
GEN_BLOCK00017
 10
55.90718460083008
 20
-42.95242691040039
 30
0.0
  0
INSERT
  5
4F3
330
1F
100
AcDbEntity
  8
1
100
AcDbBlockReference
  2
GEN_BLOCK00018
 10
51.40718460083008
 20
-42.95242691040039
 30
0.0
  0
ENDSEC
  0
SECTION
  2
OBJECTS
  0
DICTIONARY
  5
C
330
0
100
AcDbDictionary
281
     1
  3
ACAD_DETAILVIEWSTYLE
350
529
  3
ACAD_GROUP
350
D
  3
ACAD_LAYOUT
350
1A
  3
ACAD_MATERIAL
350
43
  3
ACAD_MLEADERSTYLE
350
528
  3
ACAD_MLINESTYLE
350
17
  3
ACAD_PLOTSETTINGS
350
19
  3
ACAD_PLOTSTYLENAME
350
E
  3
ACAD_SCALELIST
350
47
  3
ACAD_SECTIONVIEWSTYLE
350
52A
  3
ACAD_TABLESTYLE
350
527
  3
ACAD_VISUALSTYLE
350
2A
  3
AcDbVariableDictionary
350
4F5
  0
SUN
  5
69
330
29
100
AcDbSun
 90
        1
290
     0
 63
     7
421
 16777215
 40
1.0
291
     1
 91
  2455826
 92
 54000000
292
     0
 70
     2
 71
   256
280
     1
  0
DICTIONARY
  5
529
102
{ACAD_REACTORS
330
C
102
}
330
C
100
AcDbDictionary
281
     1
  0
DICTIONARY
  5
D
102
{ACAD_REACTORS
330
C
102
}
330
C
100
AcDbDictionary
281
     1
  0
DICTIONARY
  5
1A
102
{ACAD_REACTORS
330
C
102
}
330
C
100
AcDbDictionary
281
     1
  3
Layout1
350
1E
  3
Layout2
350
26
  3
Model
350
22
  0
DICTIONARY
  5
43
102
{ACAD_REACTORS
330
C
102
}
330
C
100
AcDbDictionary
281
     1
  3
ByBlock
350
45
  3
ByLayer
350
44
  3
Global
350
46
  0
DICTIONARY
  5
528
102
{ACAD_REACTORS
330
C
102
}
330
C
100
AcDbDictionary
281
     1
  0
DICTIONARY
  5
17
102
{ACAD_REACTORS
330
C
102
}
330
C
100
AcDbDictionary
281
     1
  3
Standard
350
18
  0
DICTIONARY
  5
19
102
{ACAD_REACTORS
330
C
102
}
330
C
100
AcDbDictionary
281
     1
  0
ACDBDICTIONARYWDFLT
  5
E
102
{ACAD_REACTORS
330
C
102
}
330
C
100
AcDbDictionary
281
     1
  3
Normal
350
F
100
AcDbDictionaryWithDefault
340
F
  0
DICTIONARY
  5
47
102
{ACAD_REACTORS
330
C
102
}
330
C
100
AcDbDictionary
281
     1
  3
A0
350
48
  3
A1
350
49
  3
A2
350
4A
  3
A3
350
4B
  3
A4
350
4C
  3
A5
350
4D
  3
A6
350
4E
  3
A7
350
4F
  3
A8
350
50
  3
A9
350
51
  3
B0
350
52
  3
B1
350
53
  3
B2
350
54
  3
B3
350
55
  3
B4
350
56
  3
B5
350
57
  3
B6
350
58
  3
B7
350
59
  3
B8
350
5A
  3
B9
350
5B
  3
C0
350
5C
  3
C1
350
5D
  3
C2
350
5E
  3
C3
350
5F
  3
C4
350
60
  3
C5
350
61
  3
C6
350
62
  3
C7
350
63
  3
C8
350
64
  3
C9
350
65
  3
D0
350
66
  3
D1
350
67
  3
D2
350
68
  0
DICTIONARY
  5
52A
102
{ACAD_REACTORS
330
C
102
}
330
C
100
AcDbDictionary
281
     1
  0
DICTIONARY
  5
527
102
{ACAD_REACTORS
330
C
102
}
330
C
100
AcDbDictionary
281
     1
  0
DICTIONARY
  5
2A
102
{ACAD_REACTORS
330
C
102
}
330
C
100
AcDbDictionary
281
     1
  3
2dWireframe
350
2F
  3
Basic
350
32
  3
Brighten
350
36
  3
ColorChange
350
3A
  3
Conceptual
350
34
  3
Dim
350
35
  3
EdgeColorOff
350
3D
  3
Facepattern
350
39
  3
Flat
350
2B
  3
FlatWithEdges
350
2C
  3
Gouraud
350
2D
  3
GouraudWithEdges
350
2E
  3
Hidden
350
31
  3
JitterOff
350
3B
  3
Linepattern
350
38
  3
OverhangOff
350
3C
  3
Realistic
350
33
  3
Shaded
350
42
  3
Shaded with edges
350
41
  3
Shades of Gray
350
3E
  3
Sketchy
350
3F
  3
Thicken
350
37
  3
Wireframe
350
30
  3
X-Ray
350
40
  0
DICTIONARY
  5
4F5
102
{ACAD_REACTORS
330
C
102
}
330
C
100
AcDbDictionary
281
     1
  3
CANNOSCALE
350
4F6
  0
LAYOUT
  5
1E
102
{ACAD_REACTORS
330
1A
102
}
330
1A
100
AcDbPlotSettings
  1

  2
none_device
  4

  6

 40
0.0
 41
0.0
 42
0.0
 43
0.0
 44
0.0
 45
0.0
 46
0.0
 47
0.0
 48
0.0
 49
0.0
140
0.0
141
0.0
142
1.0
143
1.0
 70
   688
 72
     1
 73
     0
 74
     5
  7

 75
    16
 76
     0
 77
     2
 78
   300
147
1.0
148
0.0
149
0.0
100
AcDbLayout
  1
Layout1
 70
     1
 71
     1
 10
0.0
 20
0.0
 11
420.0
 21
297.0
 12
0.0
 22
0.0
 32
0.0
 14
1.000000000000000E+20
 24
1.000000000000000E+20
 34
1.000000000000000E+20
 15
-1.000000000000000E+20
 25
-1.000000000000000E+20
 35
-1.000000000000000E+20
146
0.0
 13
0.0
 23
0.0
 33
0.0
 16
1.0
 26
0.0
 36
0.0
 17
0.0
 27
1.0
 37
0.0
 76
     0
330
1B
  0
LAYOUT
  5
26
102
{ACAD_REACTORS
330
1A
102
}
330
1A
100
AcDbPlotSettings
  1

  2
none_device
  4

  6

 40
0.0
 41
0.0
 42
0.0
 43
0.0
 44
0.0
 45
0.0
 46
0.0
 47
0.0
 48
0.0
 49
0.0
140
0.0
141
0.0
142
1.0
143
1.0
 70
   688
 72
     1
 73
     0
 74
     5
  7

 75
    16
 76
     0
 77
     2
 78
   300
147
1.0
148
0.0
149
0.0
100
AcDbLayout
  1
Layout2
 70
     1
 71
     2
 10
0.0
 20
0.0
 11
0.0
 21
0.0
 12
0.0
 22
0.0
 32
0.0
 14
0.0
 24
0.0
 34
0.0
 15
0.0
 25
0.0
 35
0.0
146
0.0
 13
0.0
 23
0.0
 33
0.0
 16
1.0
 26
0.0
 36
0.0
 17
0.0
 27
1.0
 37
0.0
 76
     0
330
23
  0
LAYOUT
  5
22
102
{ACAD_REACTORS
330
1A
102
}
330
1A
100
AcDbPlotSettings
  1

  2
none_device
  4
Letter_(8.50_x_11.00_Inches)
  6

 40
6.35
 41
6.35
 42
6.35000508
 43
6.35000508
 44
215.9
 45
279.4
 46
0.0
 47
0.0
 48
0.0
 49
0.0
140
0.0
141
0.0
142
1.0
143
1.0
 70
  1712
 72
     1
 73
     0
 74
     0
  7

 75
     0
 76
     0
 77
     2
 78
   300
147
1.0
148
0.0
149
0.0
100
AcDbLayout
  1
Model
 70
     1
 71
     0
 10
0.0
 20
0.0
 11
420.0
 21
297.0
 12
0.0
 22
0.0
 32
0.0
 14
-98.93606297498508
 24
-133.7571033549152
 34
0.0
 15
100.0839462901311
 25
144.302347929844
 35
0.0
146
0.0
 13
0.0
 23
0.0
 33
0.0
 16
1.0
 26
0.0
 36
0.0
 17
0.0
 27
1.0
 37
0.0
 76
     0
330
1F
331
29
  0
MATERIAL
  5
45
102
{ACAD_REACTORS
330
43
102
}
330
43
100
AcDbMaterial
  1
ByBlock
 72
     1
 94
      127
  0
MATERIAL
  5
44
102
{ACAD_REACTORS
330
43
102
}
330
43
100
AcDbMaterial
  1
ByLayer
 72
     1
 94
      127
  0
MATERIAL
  5
46
102
{ACAD_REACTORS
330
43
102
}
330
43
100
AcDbMaterial
  1
Global
 72
     1
 94
      127
  0
MLINESTYLE
  5
18
102
{ACAD_REACTORS
330
17
102
}
330
17
100
AcDbMlineStyle
  2
Standard
 70
     0
  3

 62
   256
 51
90.0
 52
90.0
 71
     2
 49
0.5
 62
   256
  6
BYLAYER
 49
-0.5
 62
   256
  6
BYLAYER
  0
ACDBPLACEHOLDER
  5
F
102
{ACAD_REACTORS
330
E
102
}
330
E
  0
SCALE
  5
48
102
{ACAD_REACTORS
330
47
102
}
330
47
100
AcDbScale
 70
     0
300
1:1
140
1.0
141
1.0
290
     1
  0
SCALE
  5
49
102
{ACAD_REACTORS
330
47
102
}
330
47
100
AcDbScale
 70
     0
300
1:2
140
1.0
141
2.0
290
     0
  0
SCALE
  5
4A
102
{ACAD_REACTORS
330
47
102
}
330
47
100
AcDbScale
 70
     0
300
1:4
140
1.0
141
4.0
290
     0
  0
SCALE
  5
4B
102
{ACAD_REACTORS
330
47
102
}
330
47
100
AcDbScale
 70
     0
300
1:5
140
1.0
141
5.0
290
     0
  0
SCALE
  5
4C
102
{ACAD_REACTORS
330
47
102
}
330
47
100
AcDbScale
 70
     0
300
1:8
140
1.0
141
8.0
290
     0
  0
SCALE
  5
4D
102
{ACAD_REACTORS
330
47
102
}
330
47
100
AcDbScale
 70
     0
300
1:10
140
1.0
141
10.0
290
     0
  0
SCALE
  5
4E
102
{ACAD_REACTORS
330
47
102
}
330
47
100
AcDbScale
 70
     0
300
1:16
140
1.0
141
16.0
290
     0
  0
SCALE
  5
4F
102
{ACAD_REACTORS
330
47
102
}
330
47
100
AcDbScale
 70
     0
300
1:20
140
1.0
141
20.0
290
     0
  0
SCALE
  5
50
102
{ACAD_REACTORS
330
47
102
}
330
47
100
AcDbScale
 70
     0
300
1:30
140
1.0
141
30.0
290
     0
  0
SCALE
  5
51
102
{ACAD_REACTORS
330
47
102
}
330
47
100
AcDbScale
 70
     0
300
1:40
140
1.0
141
40.0
290
     0
  0
SCALE
  5
52
102
{ACAD_REACTORS
330
47
102
}
330
47
100
AcDbScale
 70
     0
300
1:50
140
1.0
141
50.0
290
     0
  0
SCALE
  5
53
102
{ACAD_REACTORS
330
47
102
}
330
47
100
AcDbScale
 70
     0
300
1:100
140
1.0
141
100.0
290
     0
  0
SCALE
  5
54
102
{ACAD_REACTORS
330
47
102
}
330
47
100
AcDbScale
 70
     0
300
2:1
140
2.0
141
1.0
290
     0
  0
SCALE
  5
55
102
{ACAD_REACTORS
330
47
102
}
330
47
100
AcDbScale
 70
     0
300
4:1
140
4.0
141
1.0
290
     0
  0
SCALE
  5
56
102
{ACAD_REACTORS
330
47
102
}
330
47
100
AcDbScale
 70
     0
300
8:1
140
8.0
141
1.0
290
     0
  0
SCALE
  5
57
102
{ACAD_REACTORS
330
47
102
}
330
47
100
AcDbScale
 70
     0
300
10:1
140
10.0
141
1.0
290
     0
  0
SCALE
  5
58
102
{ACAD_REACTORS
330
47
102
}
330
47
100
AcDbScale
 70
     0
300
100:1
140
100.0
141
1.0
290
     0
  0
SCALE
  5
59
102
{ACAD_REACTORS
330
47
102
}
330
47
100
AcDbScale
 70
     0
300
1/128" = 1'-0"
140
0.0078125
141
12.0
290
     0
  0
SCALE
  5
5A
102
{ACAD_REACTORS
330
47
102
}
330
47
100
AcDbScale
 70
     0
300
1/64" = 1'-0"
140
0.015625
141
12.0
290
     0
  0
SCALE
  5
5B
102
{ACAD_REACTORS
330
47
102
}
330
47
100
AcDbScale
 70
     0
300
1/32" = 1'-0"
140
0.03125
141
12.0
290
     0
  0
SCALE
  5
5C
102
{ACAD_REACTORS
330
47
102
}
330
47
100
AcDbScale
 70
     0
300
1/16" = 1'-0"
140
0.0625
141
12.0
290
     0
  0
SCALE
  5
5D
102
{ACAD_REACTORS
330
47
102
}
330
47
100
AcDbScale
 70
     0
300
3/32" = 1'-0"
140
0.09375
141
12.0
290
     0
  0
SCALE
  5
5E
102
{ACAD_REACTORS
330
47
102
}
330
47
100
AcDbScale
 70
     0
300
1/8" = 1'-0"
140
0.125
141
12.0
290
     0
  0
SCALE
  5
5F
102
{ACAD_REACTORS
330
47
102
}
330
47
100
AcDbScale
 70
     0
300
3/16" = 1'-0"
140
0.1875
141
12.0
290
     0
  0
SCALE
  5
60
102
{ACAD_REACTORS
330
47
102
}
330
47
100
AcDbScale
 70
     0
300
1/4" = 1'-0"
140
0.25
141
12.0
290
     0
  0
SCALE
  5
61
102
{ACAD_REACTORS
330
47
102
}
330
47
100
AcDbScale
 70
     0
300
3/8" = 1'-0"
140
0.375
141
12.0
290
     0
  0
SCALE
  5
62
102
{ACAD_REACTORS
330
47
102
}
330
47
100
AcDbScale
 70
     0
300
1/2" = 1'-0"
140
0.5
141
12.0
290
     0
  0
SCALE
  5
63
102
{ACAD_REACTORS
330
47
102
}
330
47
100
AcDbScale
 70
     0
300
3/4" = 1'-0"
140
0.75
141
12.0
290
     0
  0
SCALE
  5
64
102
{ACAD_REACTORS
330
47
102
}
330
47
100
AcDbScale
 70
     0
300
1" = 1'-0"
140
1.0
141
12.0
290
     0
  0
SCALE
  5
65
102
{ACAD_REACTORS
330
47
102
}
330
47
100
AcDbScale
 70
     0
300
1-1/2" = 1'-0"
140
1.5
141
12.0
290
     0
  0
SCALE
  5
66
102
{ACAD_REACTORS
330
47
102
}
330
47
100
AcDbScale
 70
     0
300
3" = 1'-0"
140
3.0
141
12.0
290
     0
  0
SCALE
  5
67
102
{ACAD_REACTORS
330
47
102
}
330
47
100
AcDbScale
 70
     0
300
6" = 1'-0"
140
6.0
141
12.0
290
     0
  0
SCALE
  5
68
102
{ACAD_REACTORS
330
47
102
}
330
47
100
AcDbScale
 70
     0
300
1'-0" = 1'-0"
140
12.0
141
12.0
290
     0
  0
VISUALSTYLE
  5
2F
102
{ACAD_REACTORS
330
2A
102
}
102
{ACAD_XDICTIONARY
360
4FF
102
}
330
2A
100
AcDbVisualStyle
  2
2dWireframe
 70
     4
177
     2
291
     0
 71
     0
176
     1
 72
     2
176
     1
 73
     0
176
     1
 90
        0
176
     1
 40
0.6
176
     1
 41
30.0
176
     1
 62
     5
 63
     7
421
 16777215
176
     1
 74
     1
176
     1
 91
        4
176
     1
 64
     7
176
     1
 65
   257
176
     1
 75
     1
176
     1
175
     1
176
     1
 42
1.0
176
     1
 92
        0
176
     1
 66
   257
176
     1
 43
1.0
176
     1
 76
     1
176
     1
 77
     6
176
     1
 78
     2
176
     1
 67
     7
176
     1
 79
     5
176
     1
170
     0
176
     1
171
     0
176
     1
290
     0
176
     1
 93
        1
176
     1
 44
0.0
176
     1
173
     0
176
     1
  0
VISUALSTYLE
  5
32
102
{ACAD_REACTORS
330
2A
102
}
102
{ACAD_XDICTIONARY
360
505
102
}
330
2A
100
AcDbVisualStyle
  2
Basic
 70
     7
177
     2
291
     1
 71
     1
176
     1
 72
     0
176
     1
 73
     1
176
     1
 90
        0
176
     1
 40
0.6
176
     1
 41
30.0
176
     1
 62
     5
 63
     7
421
 16777215
176
     1
 74
     0
176
     1
 91
        4
176
     1
 64
     7
176
     1
 65
   257
176
     1
 75
     1
176
     1
175
     1
176
     1
 42
1.0
176
     1
 92
        8
176
     1
 66
     7
176
     1
 43
1.0
176
     1
 76
     1
176
     1
 77
     6
176
     1
 78
     2
176
     1
 67
     7
176
     1
 79
     5
176
     1
170
     0
176
     1
171
     0
176
     1
290
     0
176
     1
 93
        1
176
     1
 44
0.0
176
     1
173
     0
176
     1
  0
VISUALSTYLE
  5
36
102
{ACAD_REACTORS
330
2A
102
}
102
{ACAD_XDICTIONARY
360
50D
102
}
330
2A
100
AcDbVisualStyle
  2
Brighten
 70
    12
177
     2
291
     1
 71
     2
176
     1
 72
     2
176
     1
 73
     0
176
     1
 90
        0
176
     1
 40
0.6
176
     1
 41
30.0
176
     1
 62
     5
 63
     7
421
 16777215
176
     1
 74
     1
176
     1
 91
        4
176
     1
 64
     7
176
     1
 65
   257
176
     1
 75
     1
176
     1
175
     1
176
     1
 42
1.0
176
     1
 92
        8
176
     1
 66
     7
176
     1
 43
1.0
176
     1
 76
     1
176
     1
 77
     6
176
     1
 78
     2
176
     1
 67
     7
176
     1
 79
     5
176
     1
170
     0
176
     1
171
     0
176
     1
290
     0
176
     1
 93
        1
176
     1
 44
50.0
176
     1
173
     0
176
     1
  0
VISUALSTYLE
  5
3A
102
{ACAD_REACTORS
330
2A
102
}
102
{ACAD_XDICTIONARY
360
515
102
}
330
2A
100
AcDbVisualStyle
  2
ColorChange
 70
    16
177
     2
291
     1
 71
     2
176
     1
 72
     2
176
     1
 73
     3
176
     1
 90
        0
176
     1
 40
0.6
176
     1
 41
30.0
176
     1
 62
     5
 63
     8
421
  8421504
176
     1
 74
     1
176
     1
 91
        4
176
     1
 64
     7
176
     1
 65
   257
176
     1
 75
     1
176
     1
175
     1
176
     1
 42
1.0
176
     1
 92
        8
176
     1
 66
     8
424
  8421504
176
     1
 43
1.0
176
     1
 76
     1
176
     1
 77
     6
176
     1
 78
     2
176
     1
 67
     7
176
     1
 79
     5
176
     1
170
     0
176
     1
171
     0
176
     1
290
     0
176
     1
 93
        1
176
     1
 44
0.0
176
     1
173
     0
176
     1
  0
VISUALSTYLE
  5
34
102
{ACAD_REACTORS
330
2A
102
}
102
{ACAD_XDICTIONARY
360
509
102
}
330
2A
100
AcDbVisualStyle
  2
Conceptual
 70
     9
177
     2
291
     0
 71
     3
176
     1
 72
     2
176
     1
 73
     0
176
     1
 90
        0
176
     1
 40
0.6
176
     1
 41
30.0
176
     1
 62
     5
 63
     7
421
 16777215
176
     1
 74
     2
176
     1
 91
        2
176
     1
 64
     7
176
     1
 65
   257
176
     1
 75
     1
176
     1
175
     1
176
     1
 42
179.0
176
     1
 92
        8
176
     1
 66
     7
176
     1
 43
1.0
176
     1
 76
     1
176
     1
 77
     6
176
     1
 78
     2
176
     1
 67
     7
176
     1
 79
     3
176
     1
170
     0
176
     1
171
     0
176
     1
290
     0
176
     1
 93
        1
176
     1
 44
0.0
176
     1
173
     0
176
     1
  0
VISUALSTYLE
  5
35
102
{ACAD_REACTORS
330
2A
102
}
102
{ACAD_XDICTIONARY
360
50B
102
}
330
2A
100
AcDbVisualStyle
  2
Dim
 70
    11
177
     2
291
     1
 71
     2
176
     1
 72
     2
176
     1
 73
     0
176
     1
 90
        0
176
     1
 40
0.6
176
     1
 41
30.0
176
     1
 62
     5
 63
     7
421
 16777215
176
     1
 74
     1
176
     1
 91
        4
176
     1
 64
     7
176
     1
 65
   257
176
     1
 75
     1
176
     1
175
     1
176
     1
 42
1.0
176
     1
 92
        8
176
     1
 66
     7
176
     1
 43
1.0
176
     1
 76
     1
176
     1
 77
     6
176
     1
 78
     2
176
     1
 67
     7
176
     1
 79
     5
176
     1
170
     0
176
     1
171
     0
176
     1
290
     0
176
     1
 93
        1
176
     1
 44
-50.0
176
     1
173
     0
176
     1
  0
VISUALSTYLE
  5
3D
102
{ACAD_REACTORS
330
2A
102
}
102
{ACAD_XDICTIONARY
360
51B
102
}
330
2A
100
AcDbVisualStyle
  2
EdgeColorOff
 70
    22
177
     2
291
     1
 71
     2
176
     0
 72
     2
176
     0
 73
     0
176
     0
 90
        0
176
     0
 40
0.6
176
     0
 41
30.0
176
     0
 62
     5
 63
     7
421
 16777215
176
     0
 74
     1
176
     0
 91
        4
176
     0
 64
     7
176
     0
 65
   257
176
     0
 75
     1
176
     0
175
     1
176
     0
 42
1.0
176
     0
 92
        8
176
     2
 66
     7
176
     0
 43
1.0
176
     0
 76
     1
176
     0
 77
     6
176
     0
 78
     2
176
     0
 67
     7
176
     0
 79
     5
176
     0
170
     0
176
     0
171
     0
176
     0
290
     0
176
     0
 93
        1
176
     0
 44
0.0
176
     0
173
     0
176
     0
  0
VISUALSTYLE
  5
39
102
{ACAD_REACTORS
330
2A
102
}
102
{ACAD_XDICTIONARY
360
513
102
}
330
2A
100
AcDbVisualStyle
  2
Facepattern
 70
    15
177
     2
291
     1
 71
     2
176
     1
 72
     2
176
     1
 73
     0
176
     1
 90
        0
176
     1
 40
0.6
176
     1
 41
30.0
176
     1
 62
     5
 63
     7
421
 16777215
176
     1
 74
     1
176
     1
 91
        4
176
     1
 64
     7
176
     1
 65
   257
176
     1
 75
     1
176
     1
175
     1
176
     1
 42
1.0
176
     1
 92
        8
176
     1
 66
     7
176
     1
 43
1.0
176
     1
 76
     1
176
     1
 77
     6
176
     1
 78
     2
176
     1
 67
     7
176
     1
 79
     5
176
     1
170
     0
176
     1
171
     0
176
     1
290
     0
176
     1
 93
        1
176
     1
 44
0.0
176
     1
173
     0
176
     1
  0
VISUALSTYLE
  5
2B
102
{ACAD_REACTORS
330
2A
102
}
102
{ACAD_XDICTIONARY
360
4F7
102
}
330
2A
100
AcDbVisualStyle
  2
Flat
 70
     0
177
     2
291
     1
 71
     2
176
     1
 72
     1
176
     1
 73
     1
176
     1
 90
        2
176
     1
 40
0.6
176
     1
 41
30.0
176
     1
 62
     5
 63
     7
421
 16777215
176
     1
 74
     0
176
     1
 91
        0
176
     1
 64
     7
176
     1
 65
   257
176
     1
 75
     1
176
     1
175
     1
176
     1
 42
1.0
176
     1
 92
        8
176
     1
 66
     7
176
     1
 43
1.0
176
     1
 76
     1
176
     1
 77
     6
176
     1
 78
     2
176
     1
 67
     7
176
     1
 79
     5
176
     1
170
     0
176
     1
171
     0
176
     1
290
     0
176
     1
 93
       13
176
     1
 44
0.0
176
     1
173
     0
176
     1
  0
VISUALSTYLE
  5
2C
102
{ACAD_REACTORS
330
2A
102
}
102
{ACAD_XDICTIONARY
360
4F9
102
}
330
2A
100
AcDbVisualStyle
  2
FlatWithEdges
 70
     1
177
     2
291
     1
 71
     2
176
     1
 72
     1
176
     1
 73
     1
176
     1
 90
        2
176
     1
 40
0.6
176
     1
 41
30.0
176
     1
 62
     5
 63
     7
421
 16777215
176
     1
 74
     1
176
     1
 91
        0
176
     1
 64
     7
176
     1
 65
   257
176
     1
 75
     1
176
     1
175
     1
176
     1
 42
1.0
176
     1
 92
        0
176
     1
 66
   257
176
     1
 43
1.0
176
     1
 76
     1
176
     1
 77
     6
176
     1
 78
     2
176
     1
 67
     7
176
     1
 79
     5
176
     1
170
     0
176
     1
171
     0
176
     1
290
     0
176
     1
 93
       13
176
     1
 44
0.0
176
     1
173
     0
176
     1
  0
VISUALSTYLE
  5
2D
102
{ACAD_REACTORS
330
2A
102
}
102
{ACAD_XDICTIONARY
360
4FB
102
}
330
2A
100
AcDbVisualStyle
  2
Gouraud
 70
     2
177
     2
291
     1
 71
     2
176
     1
 72
     2
176
     1
 73
     1
176
     1
 90
        2
176
     1
 40
0.6
176
     1
 41
30.0
176
     1
 62
     5
 63
     7
421
 16777215
176
     1
 74
     0
176
     1
 91
        0
176
     1
 64
     7
176
     1
 65
   257
176
     1
 75
     1
176
     1
175
     1
176
     1
 42
1.0
176
     1
 92
        0
176
     1
 66
     7
176
     1
 43
1.0
176
     1
 76
     1
176
     1
 77
     6
176
     1
 78
     2
176
     1
 67
     7
176
     1
 79
     5
176
     1
170
     0
176
     1
171
     0
176
     1
290
     0
176
     1
 93
       13
176
     1
 44
0.0
176
     1
173
     0
176
     1
  0
VISUALSTYLE
  5
2E
102
{ACAD_REACTORS
330
2A
102
}
102
{ACAD_XDICTIONARY
360
4FD
102
}
330
2A
100
AcDbVisualStyle
  2
GouraudWithEdges
 70
     3
177
     2
291
     1
 71
     2
176
     1
 72
     2
176
     1
 73
     1
176
     1
 90
        2
176
     1
 40
0.6
176
     1
 41
30.0
176
     1
 62
     5
 63
     7
421
 16777215
176
     1
 74
     1
176
     1
 91
        0
176
     1
 64
     7
176
     1
 65
   257
176
     1
 75
     1
176
     1
175
     1
176
     1
 42
1.0
176
     1
 92
        0
176
     1
 66
   257
176
     1
 43
1.0
176
     1
 76
     1
176
     1
 77
     6
176
     1
 78
     2
176
     1
 67
     7
176
     1
 79
     5
176
     1
170
     0
176
     1
171
     0
176
     1
290
     0
176
     1
 93
       13
176
     1
 44
0.0
176
     1
173
     0
176
     1
  0
VISUALSTYLE
  5
31
102
{ACAD_REACTORS
330
2A
102
}
102
{ACAD_XDICTIONARY
360
503
102
}
330
2A
100
AcDbVisualStyle
  2
Hidden
 70
     6
177
     2
291
     0
 71
     1
176
     1
 72
     2
176
     1
 73
     2
176
     1
 90
        0
176
     1
 40
0.6
176
     1
 41
30.0
176
     1
 62
     5
 63
     7
421
 16777215
176
     1
 74
     2
176
     1
 91
        2
176
     1
 64
     7
176
     1
 65
   257
176
     1
 75
     2
176
     1
175
     1
176
     1
 42
40.0
176
     1
 92
        0
176
     1
 66
   257
176
     1
 43
1.0
176
     1
 76
     1
176
     1
 77
     6
176
     1
 78
     2
176
     1
 67
     7
176
     1
 79
     3
176
     1
170
     0
176
     1
171
     0
176
     1
290
     0
176
     1
 93
        1
176
     1
 44
0.0
176
     1
173
     0
176
     1
  0
VISUALSTYLE
  5
3B
102
{ACAD_REACTORS
330
2A
102
}
102
{ACAD_XDICTIONARY
360
517
102
}
330
2A
100
AcDbVisualStyle
  2
JitterOff
 70
    20
177
     2
291
     1
 71
     2
176
     0
 72
     2
176
     0
 73
     0
176
     0
 90
        0
176
     0
 40
0.6
176
     0
 41
30.0
176
     0
 62
     5
 63
     7
421
 16777215
176
     0
 74
     1
176
     0
 91
        4
176
     0
 64
     7
176
     0
 65
   257
176
     0
 75
     1
176
     0
175
     1
176
     0
 42
1.0
176
     0
 92
       10
176
     2
 66
     7
176
     0
 43
1.0
176
     0
 76
     1
176
     0
 77
     6
176
     0
 78
     2
176
     0
 67
     7
176
     0
 79
     5
176
     0
170
     0
176
     0
171
     0
176
     0
290
     0
176
     0
 93
        1
176
     0
 44
0.0
176
     0
173
     0
176
     0
  0
VISUALSTYLE
  5
38
102
{ACAD_REACTORS
330
2A
102
}
102
{ACAD_XDICTIONARY
360
511
102
}
330
2A
100
AcDbVisualStyle
  2
Linepattern
 70
    14
177
     2
291
     1
 71
     2
176
     1
 72
     2
176
     1
 73
     0
176
     1
 90
        0
176
     1
 40
0.6
176
     1
 41
30.0
176
     1
 62
     5
 63
     7
421
 16777215
176
     1
 74
     1
176
     1
 91
        4
176
     1
 64
     7
176
     1
 65
   257
176
     1
 75
     7
176
     1
175
     7
176
     1
 42
1.0
176
     1
 92
        8
176
     1
 66
     7
176
     1
 43
1.0
176
     1
 76
     1
176
     1
 77
     6
176
     1
 78
     2
176
     1
 67
     7
176
     1
 79
     5
176
     1
170
     0
176
     1
171
     0
176
     1
290
     0
176
     1
 93
        1
176
     1
 44
0.0
176
     1
173
     0
176
     1
  0
VISUALSTYLE
  5
3C
102
{ACAD_REACTORS
330
2A
102
}
102
{ACAD_XDICTIONARY
360
519
102
}
330
2A
100
AcDbVisualStyle
  2
OverhangOff
 70
    21
177
     2
291
     1
 71
     2
176
     0
 72
     2
176
     0
 73
     0
176
     0
 90
        0
176
     0
 40
0.6
176
     0
 41
30.0
176
     0
 62
     5
 63
     7
421
 16777215
176
     0
 74
     1
176
     0
 91
        4
176
     0
 64
     7
176
     0
 65
   257
176
     0
 75
     1
176
     0
175
     1
176
     0
 42
1.0
176
     0
 92
        9
176
     2
 66
     7
176
     0
 43
1.0
176
     0
 76
     1
176
     0
 77
     6
176
     0
 78
     2
176
     0
 67
     7
176
     0
 79
     5
176
     0
170
     0
176
     0
171
     0
176
     0
290
     0
176
     0
 93
        1
176
     0
 44
0.0
176
     0
173
     0
176
     0
  0
VISUALSTYLE
  5
33
102
{ACAD_REACTORS
330
2A
102
}
102
{ACAD_XDICTIONARY
360
507
102
}
330
2A
100
AcDbVisualStyle
  2
Realistic
 70
     8
177
     2
291
     0
 71
     2
176
     1
 72
     3
176
     1
 73
     0
176
     1
 90
        2
176
     1
 40
0.6
176
     1
 41
30.0
176
     1
 62
     5
 63
     7
421
 16777215
176
     1
 74
     0
176
     1
 91
        0
176
     1
 64
     7
176
     1
 65
   257
176
     1
 75
     1
176
     1
175
     1
176
     1
 42
1.0
176
     1
 92
        8
176
     1
 66
   257
176
     1
 43
1.0
176
     1
 76
     1
176
     1
 77
     6
176
     1
 78
     2
176
     1
 67
     7
176
     1
 79
     3
176
     1
170
     0
176
     1
171
     0
176
     1
290
     0
176
     1
 93
       13
176
     1
 44
0.0
176
     1
173
     0
176
     1
  0
VISUALSTYLE
  5
42
102
{ACAD_REACTORS
330
2A
102
}
102
{ACAD_XDICTIONARY
360
525
102
}
330
2A
100
AcDbVisualStyle
  2
Shaded
 70
    27
177
     2
291
     0
 71
     2
176
     1
 72
     2
176
     1
 73
     1
176
     1
 90
        2
176
     1
 40
0.6
176
     1
 41
30.0
176
     1
 62
     5
 63
     7
421
 16777215
176
     1
 74
     0
176
     1
 91
        4
176
     1
 64
     7
176
     1
 65
   257
176
     1
 75
     1
176
     1
175
     1
176
     1
 42
1.0
176
     1
 92
        8
176
     1
 66
   257
176
     1
 43
1.0
176
     1
 76
     1
176
     1
 77
     6
176
     1
 78
     2
176
     1
 67
     8
425
  7895160
176
     1
 79
     3
176
     1
170
     0
176
     1
171
     0
176
     1
290
     0
176
     1
 93
        5
176
     1
 44
0.0
176
     1
173
     0
176
     1
  0
VISUALSTYLE
  5
41
102
{ACAD_REACTORS
330
2A
102
}
102
{ACAD_XDICTIONARY
360
523
102
}
330
2A
100
AcDbVisualStyle
  2
Shaded with edges
 70
    26
177
     2
291
     0
 71
     2
176
     1
 72
     2
176
     1
 73
     1
176
     1
 90
        2
176
     1
 40
0.6
176
     1
 41
30.0
176
     1
 62
     5
 63
     7
421
 16777215
176
     1
 74
     1
176
     1
 91
       10
176
     1
 64
     7
176
     1
 65
   257
176
     1
 75
     2
176
     1
175
     1
176
     1
 42
1.0
176
     1
 92
        8
176
     1
 66
   257
176
     1
 43
1.0
176
     1
 76
     1
176
     1
 77
     6
176
     1
 78
     2
176
     1
 67
     7
176
     1
 79
     3
176
     1
170
     0
176
     1
171
     0
176
     1
290
     0
176
     1
 93
        5
176
     1
 44
0.0
176
     1
173
     0
176
     1
  0
VISUALSTYLE
  5
3E
102
{ACAD_REACTORS
330
2A
102
}
102
{ACAD_XDICTIONARY
360
51D
102
}
330
2A
100
AcDbVisualStyle
  2
Shades of Gray
 70
    23
177
     2
291
     0
 71
     2
176
     1
 72
     2
176
     1
 73
     3
176
     1
 90
        0
176
     1
 40
0.6
176
     1
 41
30.0
176
     1
 62
     5
 63
     7
421
 16777215
176
     1
 74
     2
176
     1
 91
        2
176
     1
 64
     7
176
     1
 65
     7
176
     1
 75
     1
176
     1
175
     1
176
     1
 42
40.0
176
     1
 92
        8
176
     1
 66
     7
176
     1
 43
1.0
176
     1
 76
     1
176
     1
 77
     6
176
     1
 78
     2
176
     1
 67
     7
176
     1
 79
     3
176
     1
170
     0
176
     1
171
     0
176
     1
290
     0
176
     1
 93
        1
176
     1
 44
0.0
176
     1
173
     0
176
     1
  0
VISUALSTYLE
  5
3F
102
{ACAD_REACTORS
330
2A
102
}
102
{ACAD_XDICTIONARY
360
51F
102
}
330
2A
100
AcDbVisualStyle
  2
Sketchy
 70
    24
177
     2
291
     0
 71
     1
176
     1
 72
     2
176
     1
 73
     2
176
     1
 90
        0
176
     1
 40
0.6
176
     1
 41
30.0
176
     1
 62
     5
 63
     7
421
 16777215
176
     1
 74
     2
176
     1
 91
        2
176
     1
 64
     7
176
     1
 65
     7
176
     1
 75
     1
176
     1
175
     1
176
     1
 42
40.0
176
     1
 92
       11
176
     1
 66
     7
176
     1
 43
1.0
176
     1
 76
     1
176
     1
 77
     6
176
     1
 78
     2
176
     1
 67
     7
176
     1
 79
     6
176
     1
170
     0
176
     1
171
     0
176
     1
290
     0
176
     1
 93
        1
176
     1
 44
0.0
176
     1
173
     0
176
     1
  0
VISUALSTYLE
  5
37
102
{ACAD_REACTORS
330
2A
102
}
102
{ACAD_XDICTIONARY
360
50F
102
}
330
2A
100
AcDbVisualStyle
  2
Thicken
 70
    13
177
     2
291
     1
 71
     2
176
     1
 72
     2
176
     1
 73
     0
176
     1
 90
        0
176
     1
 40
0.6
176
     1
 41
30.0
176
     1
 62
     5
 63
     7
421
 16777215
176
     1
 74
     1
176
     1
 91
        4
176
     1
 64
     7
176
     1
 65
   257
176
     1
 75
     1
176
     1
175
     1
176
     1
 42
1.0
176
     1
 92
       12
176
     1
 66
     7
176
     1
 43
1.0
176
     1
 76
     1
176
     1
 77
     6
176
     1
 78
     2
176
     1
 67
     7
176
     1
 79
     5
176
     1
170
     0
176
     1
171
     0
176
     1
290
     0
176
     1
 93
        1
176
     1
 44
0.0
176
     1
173
     0
176
     1
  0
VISUALSTYLE
  5
30
102
{ACAD_REACTORS
330
2A
102
}
102
{ACAD_XDICTIONARY
360
501
102
}
330
2A
100
AcDbVisualStyle
  2
Wireframe
 70
     5
177
     2
291
     0
 71
     0
176
     1
 72
     2
176
     1
 73
     0
176
     1
 90
        0
176
     1
 40
0.6
176
     1
 41
30.0
176
     1
 62
     5
 63
     7
421
 16777215
176
     1
 74
     1
176
     1
 91
        4
176
     1
 64
     7
176
     1
 65
   257
176
     1
 75
     1
176
     1
175
     1
176
     1
 42
1.0
176
     1
 92
        0
176
     1
 66
   257
176
     1
 43
1.0
176
     1
 76
     1
176
     1
 77
     6
176
     1
 78
     2
176
     1
 67
     7
176
     1
 79
     3
176
     1
170
     0
176
     1
171
     0
176
     1
290
     0
176
     1
 93
        1
176
     1
 44
0.0
176
     1
173
     0
176
     1
  0
VISUALSTYLE
  5
40
102
{ACAD_REACTORS
330
2A
102
}
102
{ACAD_XDICTIONARY
360
521
102
}
330
2A
100
AcDbVisualStyle
  2
X-Ray
 70
    25
177
     2
291
     0
 71
     2
176
     1
 72
     2
176
     1
 73
     1
176
     1
 90
        1
176
     1
 40
0.5
176
     1
 41
30.0
176
     1
 62
     5
 63
     7
421
 16777215
176
     1
 74
     1
176
     1
 91
        0
176
     1
 64
     7
176
     1
 65
   257
176
     1
 75
     1
176
     1
175
     1
176
     1
 42
1.0
176
     1
 92
        8
176
     1
 66
     7
176
     1
 43
1.0
176
     1
 76
     1
176
     1
 77
     6
176
     1
 78
     2
176
     1
 67
     7
176
     1
 79
     3
176
     1
170
     0
176
     1
171
     0
176
     1
290
     0
176
     1
 93
       13
176
     1
 44
0.0
176
     1
173
     0
176
     1
  0
DICTIONARYVAR
  5
4F6
102
{ACAD_REACTORS
330
4F5
102
}
330
4F5
100
DictionaryVariables
280
     0
  1
1:1
  0
DICTIONARY
  5
4FF
330
2F
100
AcDbDictionary
280
     1
281
     1
  3
ACAD_XREC_ROUNDTRIP
360
500
  0
DICTIONARY
  5
505
330
32
100
AcDbDictionary
280
     1
281
     1
  3
ACAD_XREC_ROUNDTRIP
360
506
  0
DICTIONARY
  5
50D
330
36
100
AcDbDictionary
280
     1
281
     1
  3
ACAD_XREC_ROUNDTRIP
360
50E
  0
DICTIONARY
  5
515
330
3A
100
AcDbDictionary
280
     1
281
     1
  3
ACAD_XREC_ROUNDTRIP
360
516
  0
DICTIONARY
  5
509
330
34
100
AcDbDictionary
280
     1
281
     1
  3
ACAD_XREC_ROUNDTRIP
360
50A
  0
DICTIONARY
  5
50B
330
35
100
AcDbDictionary
280
     1
281
     1
  3
ACAD_XREC_ROUNDTRIP
360
50C
  0
DICTIONARY
  5
51B
330
3D
100
AcDbDictionary
280
     1
281
     1
  3
ACAD_XREC_ROUNDTRIP
360
51C
  0
DICTIONARY
  5
513
330
39
100
AcDbDictionary
280
     1
281
     1
  3
ACAD_XREC_ROUNDTRIP
360
514
  0
DICTIONARY
  5
4F7
330
2B
100
AcDbDictionary
280
     1
281
     1
  3
ACAD_XREC_ROUNDTRIP
360
4F8
  0
DICTIONARY
  5
4F9
330
2C
100
AcDbDictionary
280
     1
281
     1
  3
ACAD_XREC_ROUNDTRIP
360
4FA
  0
DICTIONARY
  5
4FB
330
2D
100
AcDbDictionary
280
     1
281
     1
  3
ACAD_XREC_ROUNDTRIP
360
4FC
  0
DICTIONARY
  5
4FD
330
2E
100
AcDbDictionary
280
     1
281
     1
  3
ACAD_XREC_ROUNDTRIP
360
4FE
  0
DICTIONARY
  5
503
330
31
100
AcDbDictionary
280
     1
281
     1
  3
ACAD_XREC_ROUNDTRIP
360
504
  0
DICTIONARY
  5
517
330
3B
100
AcDbDictionary
280
     1
281
     1
  3
ACAD_XREC_ROUNDTRIP
360
518
  0
DICTIONARY
  5
511
330
38
100
AcDbDictionary
280
     1
281
     1
  3
ACAD_XREC_ROUNDTRIP
360
512
  0
DICTIONARY
  5
519
330
3C
100
AcDbDictionary
280
     1
281
     1
  3
ACAD_XREC_ROUNDTRIP
360
51A
  0
DICTIONARY
  5
507
330
33
100
AcDbDictionary
280
     1
281
     1
  3
ACAD_XREC_ROUNDTRIP
360
508
  0
DICTIONARY
  5
525
330
42
100
AcDbDictionary
280
     1
281
     1
  3
ACAD_XREC_ROUNDTRIP
360
526
  0
DICTIONARY
  5
523
330
41
100
AcDbDictionary
280
     1
281
     1
  3
ACAD_XREC_ROUNDTRIP
360
524
  0
DICTIONARY
  5
51D
330
3E
100
AcDbDictionary
280
     1
281
     1
  3
ACAD_XREC_ROUNDTRIP
360
51E
  0
DICTIONARY
  5
51F
330
3F
100
AcDbDictionary
280
     1
281
     1
  3
ACAD_XREC_ROUNDTRIP
360
520
  0
DICTIONARY
  5
50F
330
37
100
AcDbDictionary
280
     1
281
     1
  3
ACAD_XREC_ROUNDTRIP
360
510
  0
DICTIONARY
  5
501
330
30
100
AcDbDictionary
280
     1
281
     1
  3
ACAD_XREC_ROUNDTRIP
360
502
  0
DICTIONARY
  5
521
330
40
100
AcDbDictionary
280
     1
281
     1
  3
ACAD_XREC_ROUNDTRIP
360
522
  0
XRECORD
  5
500
102
{ACAD_REACTORS
330
4FF
102
}
330
4FF
100
AcDbXrecord
280
     1
102
RTVSPost2010Prop28
280
     1
102
RTVSPost2010PropOp28
 70
     1
102
RTVSPost2010Prop29
280
     1
102
RTVSPost2010PropOp29
 70
     1
102
RTVSPost2010Prop30
280
     0
102
RTVSPost2010PropOp30
 70
     1
102
RTVSPost2010Prop31
280
     0
102
RTVSPost2010PropOp31
 70
     1
102
RTVSPost2010Prop32
280
     0
102
RTVSPost2010PropOp32
 70
     1
102
RTVSPost2010Prop33
280
     0
102
RTVSPost2010PropOp33
 70
     1
102
RTVSPost2010Prop34
280
     0
102
RTVSPost2010PropOp34
 70
     1
102
RTVSPost2010Prop35
280
     0
102
RTVSPost2010PropOp35
 70
     1
102
RTVSPost2010Prop36
280
     0
102
RTVSPost2010PropOp36
 70
     1
102
RTVSPost2010Prop37
 90
       50
102
RTVSPost2010PropOp37
 70
     1
102
RTVSPost2010Prop38
140
0.0
102
RTVSPost2010PropOp38
 70
     1
102
RTVSPost2010Prop39
140
1.0
102
RTVSPost2010PropOp39
 70
     1
102
RTVSPost2010Prop40
 90
        0
102
RTVSPost2010PropOp40
 70
     1
102
RTVSPost2010Prop41ColorIndex
 90
       18
102
RTVSPost2010Prop41ColorRGB
 90
        0
102
RTVSPost2010PropOp41
 70
     1
102
RTVSPost2010Prop42
 90
       50
102
RTVSPost2010PropOp42
 70
     1
102
RTVSPost2010Prop43
 90
        3
102
RTVSPost2010PropOp43
 70
     1
102
RTVSPost2010Prop44ColorIndex
 90
        5
102
RTVSPost2010Prop44ColorRGB
 90
      255
102
RTVSPost2010PropOp44
 70
     1
102
RTVSPost2010Prop45
280
     0
102
RTVSPost2010PropOp45
 70
     1
102
RTVSPost2010Prop46
 90
       50
102
RTVSPost2010PropOp46
 70
     1
102
RTVSPost2010Prop47
 90
       50
102
RTVSPost2010PropOp47
 70
     1
102
RTVSPost2010Prop48
 90
       50
102
RTVSPost2010PropOp48
 70
     1
102
RTVSPost2010Prop49
280
     0
102
RTVSPost2010PropOp49
 70
     1
102
RTVSPost2010Prop50
 90
       50
102
RTVSPost2010PropOp50
 70
     1
102
RTVSPost2010Prop51ColorIndex
 90
      256
102
RTVSPost2010Prop51ColorRGB
 90
-16777216
102
RTVSPost2010PropOp51
 70
     0
102
RTVSPost2010Prop52
140
1.0
102
RTVSPost2010PropOp52
 70
     0
102
RTVSPost2010Prop53
 90
        2
102
RTVSPost2010PropOp53
 70
     1
102
RTVSPost2010Prop54
  1
strokes_ogs.tif
102
RTVSPost2010PropOp54
 70
     1
102
RTVSPost2010Prop55
280
     0
102
RTVSPost2010PropOp55
 70
     1
102
RTVSPost2010Prop56
140
1.0
102
RTVSPost2010PropOp56
 70
     1
102
RTVSPost2010Prop57
140
1.0
102
RTVSPost2010PropOp57
 70
     1
  0
XRECORD
  5
506
102
{ACAD_REACTORS
330
505
102
}
330
505
100
AcDbXrecord
280
     1
102
RTVSPost2010Prop28
280
     0
102
RTVSPost2010PropOp28
 70
     1
102
RTVSPost2010Prop29
280
     1
102
RTVSPost2010PropOp29
 70
     1
102
RTVSPost2010Prop30
280
     1
102
RTVSPost2010PropOp30
 70
     1
102
RTVSPost2010Prop31
280
     0
102
RTVSPost2010PropOp31
 70
     1
102
RTVSPost2010Prop32
280
     0
102
RTVSPost2010PropOp32
 70
     1
102
RTVSPost2010Prop33
280
     0
102
RTVSPost2010PropOp33
 70
     1
102
RTVSPost2010Prop34
280
     0
102
RTVSPost2010PropOp34
 70
     1
102
RTVSPost2010Prop35
280
     0
102
RTVSPost2010PropOp35
 70
     1
102
RTVSPost2010Prop36
280
     0
102
RTVSPost2010PropOp36
 70
     1
102
RTVSPost2010Prop37
 90
       50
102
RTVSPost2010PropOp37
 70
     1
102
RTVSPost2010Prop38
140
0.0
102
RTVSPost2010PropOp38
 70
     1
102
RTVSPost2010Prop39
140
1.0
102
RTVSPost2010PropOp39
 70
     1
102
RTVSPost2010Prop40
 90
        0
102
RTVSPost2010PropOp40
 70
     1
102
RTVSPost2010Prop41ColorIndex
 90
       18
102
RTVSPost2010Prop41ColorRGB
 90
        0
102
RTVSPost2010PropOp41
 70
     1
102
RTVSPost2010Prop42
 90
       50
102
RTVSPost2010PropOp42
 70
     1
102
RTVSPost2010Prop43
 90
        3
102
RTVSPost2010PropOp43
 70
     1
102
RTVSPost2010Prop44ColorIndex
 90
        5
102
RTVSPost2010Prop44ColorRGB
 90
      255
102
RTVSPost2010PropOp44
 70
     1
102
RTVSPost2010Prop45
280
     0
102
RTVSPost2010PropOp45
 70
     1
102
RTVSPost2010Prop46
 90
       50
102
RTVSPost2010PropOp46
 70
     1
102
RTVSPost2010Prop47
 90
       50
102
RTVSPost2010PropOp47
 70
     1
102
RTVSPost2010Prop48
 90
       50
102
RTVSPost2010PropOp48
 70
     1
102
RTVSPost2010Prop49
280
     0
102
RTVSPost2010PropOp49
 70
     1
102
RTVSPost2010Prop50
 90
       50
102
RTVSPost2010PropOp50
 70
     1
102
RTVSPost2010Prop51ColorIndex
 90
      256
102
RTVSPost2010Prop51ColorRGB
 90
-16777216
102
RTVSPost2010PropOp51
 70
     0
102
RTVSPost2010Prop52
140
1.0
102
RTVSPost2010PropOp52
 70
     0
102
RTVSPost2010Prop53
 90
        2
102
RTVSPost2010PropOp53
 70
     1
102
RTVSPost2010Prop54
  1
strokes_ogs.tif
102
RTVSPost2010PropOp54
 70
     1
102
RTVSPost2010Prop55
280
     0
102
RTVSPost2010PropOp55
 70
     1
102
RTVSPost2010Prop56
140
1.0
102
RTVSPost2010PropOp56
 70
     1
102
RTVSPost2010Prop57
140
1.0
102
RTVSPost2010PropOp57
 70
     1
  0
XRECORD
  5
50E
102
{ACAD_REACTORS
330
50D
102
}
330
50D
100
AcDbXrecord
280
     1
102
RTVSPost2010Prop28
280
     0
102
RTVSPost2010PropOp28
 70
     1
102
RTVSPost2010Prop29
280
     1
102
RTVSPost2010PropOp29
 70
     1
102
RTVSPost2010Prop30
280
     1
102
RTVSPost2010PropOp30
 70
     1
102
RTVSPost2010Prop31
280
     0
102
RTVSPost2010PropOp31
 70
     1
102
RTVSPost2010Prop32
280
     0
102
RTVSPost2010PropOp32
 70
     1
102
RTVSPost2010Prop33
280
     0
102
RTVSPost2010PropOp33
 70
     1
102
RTVSPost2010Prop34
280
     0
102
RTVSPost2010PropOp34
 70
     1
102
RTVSPost2010Prop35
280
     0
102
RTVSPost2010PropOp35
 70
     1
102
RTVSPost2010Prop36
280
     0
102
RTVSPost2010PropOp36
 70
     1
102
RTVSPost2010Prop37
 90
       50
102
RTVSPost2010PropOp37
 70
     1
102
RTVSPost2010Prop38
140
0.0
102
RTVSPost2010PropOp38
 70
     1
102
RTVSPost2010Prop39
140
1.0
102
RTVSPost2010PropOp39
 70
     1
102
RTVSPost2010Prop40
 90
        0
102
RTVSPost2010PropOp40
 70
     1
102
RTVSPost2010Prop41ColorIndex
 90
       18
102
RTVSPost2010Prop41ColorRGB
 90
        0
102
RTVSPost2010PropOp41
 70
     1
102
RTVSPost2010Prop42
 90
       50
102
RTVSPost2010PropOp42
 70
     1
102
RTVSPost2010Prop43
 90
        3
102
RTVSPost2010PropOp43
 70
     1
102
RTVSPost2010Prop44ColorIndex
 90
        5
102
RTVSPost2010Prop44ColorRGB
 90
      255
102
RTVSPost2010PropOp44
 70
     1
102
RTVSPost2010Prop45
280
     0
102
RTVSPost2010PropOp45
 70
     1
102
RTVSPost2010Prop46
 90
       50
102
RTVSPost2010PropOp46
 70
     1
102
RTVSPost2010Prop47
 90
       50
102
RTVSPost2010PropOp47
 70
     1
102
RTVSPost2010Prop48
 90
       50
102
RTVSPost2010PropOp48
 70
     1
102
RTVSPost2010Prop49
280
     0
102
RTVSPost2010PropOp49
 70
     1
102
RTVSPost2010Prop50
 90
       50
102
RTVSPost2010PropOp50
 70
     1
102
RTVSPost2010Prop51ColorIndex
 90
      256
102
RTVSPost2010Prop51ColorRGB
 90
-16777216
102
RTVSPost2010PropOp51
 70
     0
102
RTVSPost2010Prop52
140
1.0
102
RTVSPost2010PropOp52
 70
     0
102
RTVSPost2010Prop53
 90
        2
102
RTVSPost2010PropOp53
 70
     1
102
RTVSPost2010Prop54
  1
strokes_ogs.tif
102
RTVSPost2010PropOp54
 70
     1
102
RTVSPost2010Prop55
280
     0
102
RTVSPost2010PropOp55
 70
     1
102
RTVSPost2010Prop56
140
1.0
102
RTVSPost2010PropOp56
 70
     1
102
RTVSPost2010Prop57
140
1.0
102
RTVSPost2010PropOp57
 70
     1
  0
XRECORD
  5
516
102
{ACAD_REACTORS
330
515
102
}
330
515
100
AcDbXrecord
280
     1
102
RTVSPost2010Prop28
280
     0
102
RTVSPost2010PropOp28
 70
     1
102
RTVSPost2010Prop29
280
     1
102
RTVSPost2010PropOp29
 70
     1
102
RTVSPost2010Prop30
280
     1
102
RTVSPost2010PropOp30
 70
     1
102
RTVSPost2010Prop31
280
     0
102
RTVSPost2010PropOp31
 70
     1
102
RTVSPost2010Prop32
280
     0
102
RTVSPost2010PropOp32
 70
     1
102
RTVSPost2010Prop33
280
     0
102
RTVSPost2010PropOp33
 70
     1
102
RTVSPost2010Prop34
280
     0
102
RTVSPost2010PropOp34
 70
     1
102
RTVSPost2010Prop35
280
     0
102
RTVSPost2010PropOp35
 70
     1
102
RTVSPost2010Prop36
280
     0
102
RTVSPost2010PropOp36
 70
     1
102
RTVSPost2010Prop37
 90
       50
102
RTVSPost2010PropOp37
 70
     1
102
RTVSPost2010Prop38
140
0.0
102
RTVSPost2010PropOp38
 70
     1
102
RTVSPost2010Prop39
140
1.0
102
RTVSPost2010PropOp39
 70
     1
102
RTVSPost2010Prop40
 90
        0
102
RTVSPost2010PropOp40
 70
     1
102
RTVSPost2010Prop41ColorIndex
 90
       18
102
RTVSPost2010Prop41ColorRGB
 90
        0
102
RTVSPost2010PropOp41
 70
     1
102
RTVSPost2010Prop42
 90
       50
102
RTVSPost2010PropOp42
 70
     1
102
RTVSPost2010Prop43
 90
        3
102
RTVSPost2010PropOp43
 70
     1
102
RTVSPost2010Prop44ColorIndex
 90
        5
102
RTVSPost2010Prop44ColorRGB
 90
      255
102
RTVSPost2010PropOp44
 70
     1
102
RTVSPost2010Prop45
280
     0
102
RTVSPost2010PropOp45
 70
     1
102
RTVSPost2010Prop46
 90
       50
102
RTVSPost2010PropOp46
 70
     1
102
RTVSPost2010Prop47
 90
       50
102
RTVSPost2010PropOp47
 70
     1
102
RTVSPost2010Prop48
 90
       50
102
RTVSPost2010PropOp48
 70
     1
102
RTVSPost2010Prop49
280
     0
102
RTVSPost2010PropOp49
 70
     1
102
RTVSPost2010Prop50
 90
       50
102
RTVSPost2010PropOp50
 70
     1
102
RTVSPost2010Prop51ColorIndex
 90
      256
102
RTVSPost2010Prop51ColorRGB
 90
-16777216
102
RTVSPost2010PropOp51
 70
     0
102
RTVSPost2010Prop52
140
1.0
102
RTVSPost2010PropOp52
 70
     0
102
RTVSPost2010Prop53
 90
        2
102
RTVSPost2010PropOp53
 70
     1
102
RTVSPost2010Prop54
  1
strokes_ogs.tif
102
RTVSPost2010PropOp54
 70
     1
102
RTVSPost2010Prop55
280
     0
102
RTVSPost2010PropOp55
 70
     1
102
RTVSPost2010Prop56
140
1.0
102
RTVSPost2010PropOp56
 70
     1
102
RTVSPost2010Prop57
140
1.0
102
RTVSPost2010PropOp57
 70
     1
  0
XRECORD
  5
50A
102
{ACAD_REACTORS
330
509
102
}
330
509
100
AcDbXrecord
280
     1
102
RTVSPost2010Prop28
280
     0
102
RTVSPost2010PropOp28
 70
     1
102
RTVSPost2010Prop29
280
     1
102
RTVSPost2010PropOp29
 70
     1
102
RTVSPost2010Prop30
280
     1
102
RTVSPost2010PropOp30
 70
     1
102
RTVSPost2010Prop31
280
     0
102
RTVSPost2010PropOp31
 70
     1
102
RTVSPost2010Prop32
280
     0
102
RTVSPost2010PropOp32
 70
     1
102
RTVSPost2010Prop33
280
     0
102
RTVSPost2010PropOp33
 70
     1
102
RTVSPost2010Prop34
280
     0
102
RTVSPost2010PropOp34
 70
     1
102
RTVSPost2010Prop35
280
     0
102
RTVSPost2010PropOp35
 70
     1
102
RTVSPost2010Prop36
280
     0
102
RTVSPost2010PropOp36
 70
     1
102
RTVSPost2010Prop37
 90
       50
102
RTVSPost2010PropOp37
 70
     1
102
RTVSPost2010Prop38
140
0.0
102
RTVSPost2010PropOp38
 70
     1
102
RTVSPost2010Prop39
140
1.0
102
RTVSPost2010PropOp39
 70
     1
102
RTVSPost2010Prop40
 90
        0
102
RTVSPost2010PropOp40
 70
     1
102
RTVSPost2010Prop41ColorIndex
 90
       18
102
RTVSPost2010Prop41ColorRGB
 90
        0
102
RTVSPost2010PropOp41
 70
     1
102
RTVSPost2010Prop42
 90
       50
102
RTVSPost2010PropOp42
 70
     1
102
RTVSPost2010Prop43
 90
        3
102
RTVSPost2010PropOp43
 70
     1
102
RTVSPost2010Prop44ColorIndex
 90
        5
102
RTVSPost2010Prop44ColorRGB
 90
      255
102
RTVSPost2010PropOp44
 70
     1
102
RTVSPost2010Prop45
280
     0
102
RTVSPost2010PropOp45
 70
     1
102
RTVSPost2010Prop46
 90
       50
102
RTVSPost2010PropOp46
 70
     1
102
RTVSPost2010Prop47
 90
       50
102
RTVSPost2010PropOp47
 70
     1
102
RTVSPost2010Prop48
 90
       50
102
RTVSPost2010PropOp48
 70
     1
102
RTVSPost2010Prop49
280
     0
102
RTVSPost2010PropOp49
 70
     1
102
RTVSPost2010Prop50
 90
       50
102
RTVSPost2010PropOp50
 70
     1
102
RTVSPost2010Prop51ColorIndex
 90
      256
102
RTVSPost2010Prop51ColorRGB
 90
-16777216
102
RTVSPost2010PropOp51
 70
     0
102
RTVSPost2010Prop52
140
1.0
102
RTVSPost2010PropOp52
 70
     0
102
RTVSPost2010Prop53
 90
        2
102
RTVSPost2010PropOp53
 70
     1
102
RTVSPost2010Prop54
  1
strokes_ogs.tif
102
RTVSPost2010PropOp54
 70
     1
102
RTVSPost2010Prop55
280
     0
102
RTVSPost2010PropOp55
 70
     1
102
RTVSPost2010Prop56
140
1.0
102
RTVSPost2010PropOp56
 70
     1
102
RTVSPost2010Prop57
140
1.0
102
RTVSPost2010PropOp57
 70
     1
  0
XRECORD
  5
50C
102
{ACAD_REACTORS
330
50B
102
}
330
50B
100
AcDbXrecord
280
     1
102
RTVSPost2010Prop28
280
     0
102
RTVSPost2010PropOp28
 70
     1
102
RTVSPost2010Prop29
280
     1
102
RTVSPost2010PropOp29
 70
     1
102
RTVSPost2010Prop30
280
     1
102
RTVSPost2010PropOp30
 70
     1
102
RTVSPost2010Prop31
280
     0
102
RTVSPost2010PropOp31
 70
     1
102
RTVSPost2010Prop32
280
     0
102
RTVSPost2010PropOp32
 70
     1
102
RTVSPost2010Prop33
280
     0
102
RTVSPost2010PropOp33
 70
     1
102
RTVSPost2010Prop34
280
     0
102
RTVSPost2010PropOp34
 70
     1
102
RTVSPost2010Prop35
280
     0
102
RTVSPost2010PropOp35
 70
     1
102
RTVSPost2010Prop36
280
     0
102
RTVSPost2010PropOp36
 70
     1
102
RTVSPost2010Prop37
 90
       50
102
RTVSPost2010PropOp37
 70
     1
102
RTVSPost2010Prop38
140
0.0
102
RTVSPost2010PropOp38
 70
     1
102
RTVSPost2010Prop39
140
1.0
102
RTVSPost2010PropOp39
 70
     1
102
RTVSPost2010Prop40
 90
        0
102
RTVSPost2010PropOp40
 70
     1
102
RTVSPost2010Prop41ColorIndex
 90
       18
102
RTVSPost2010Prop41ColorRGB
 90
        0
102
RTVSPost2010PropOp41
 70
     1
102
RTVSPost2010Prop42
 90
       50
102
RTVSPost2010PropOp42
 70
     1
102
RTVSPost2010Prop43
 90
        3
102
RTVSPost2010PropOp43
 70
     1
102
RTVSPost2010Prop44ColorIndex
 90
        5
102
RTVSPost2010Prop44ColorRGB
 90
      255
102
RTVSPost2010PropOp44
 70
     1
102
RTVSPost2010Prop45
280
     0
102
RTVSPost2010PropOp45
 70
     1
102
RTVSPost2010Prop46
 90
       50
102
RTVSPost2010PropOp46
 70
     1
102
RTVSPost2010Prop47
 90
       50
102
RTVSPost2010PropOp47
 70
     1
102
RTVSPost2010Prop48
 90
       50
102
RTVSPost2010PropOp48
 70
     1
102
RTVSPost2010Prop49
280
     0
102
RTVSPost2010PropOp49
 70
     1
102
RTVSPost2010Prop50
 90
       50
102
RTVSPost2010PropOp50
 70
     1
102
RTVSPost2010Prop51ColorIndex
 90
      256
102
RTVSPost2010Prop51ColorRGB
 90
-16777216
102
RTVSPost2010PropOp51
 70
     0
102
RTVSPost2010Prop52
140
1.0
102
RTVSPost2010PropOp52
 70
     0
102
RTVSPost2010Prop53
 90
        2
102
RTVSPost2010PropOp53
 70
     1
102
RTVSPost2010Prop54
  1
strokes_ogs.tif
102
RTVSPost2010PropOp54
 70
     1
102
RTVSPost2010Prop55
280
     0
102
RTVSPost2010PropOp55
 70
     1
102
RTVSPost2010Prop56
140
1.0
102
RTVSPost2010PropOp56
 70
     1
102
RTVSPost2010Prop57
140
1.0
102
RTVSPost2010PropOp57
 70
     1
  0
XRECORD
  5
51C
102
{ACAD_REACTORS
330
51B
102
}
330
51B
100
AcDbXrecord
280
     1
102
RTVSPost2010Prop28
280
     0
102
RTVSPost2010PropOp28
 70
     0
102
RTVSPost2010Prop29
280
     1
102
RTVSPost2010PropOp29
 70
     0
102
RTVSPost2010Prop30
280
     1
102
RTVSPost2010PropOp30
 70
     0
102
RTVSPost2010Prop31
280
     0
102
RTVSPost2010PropOp31
 70
     0
102
RTVSPost2010Prop32
280
     0
102
RTVSPost2010PropOp32
 70
     0
102
RTVSPost2010Prop33
280
     0
102
RTVSPost2010PropOp33
 70
     0
102
RTVSPost2010Prop34
280
     0
102
RTVSPost2010PropOp34
 70
     0
102
RTVSPost2010Prop35
280
     0
102
RTVSPost2010PropOp35
 70
     0
102
RTVSPost2010Prop36
280
     0
102
RTVSPost2010PropOp36
 70
     0
102
RTVSPost2010Prop37
 90
       50
102
RTVSPost2010PropOp37
 70
     0
102
RTVSPost2010Prop38
140
0.0
102
RTVSPost2010PropOp38
 70
     0
102
RTVSPost2010Prop39
140
1.0
102
RTVSPost2010PropOp39
 70
     0
102
RTVSPost2010Prop40
 90
        0
102
RTVSPost2010PropOp40
 70
     0
102
RTVSPost2010Prop41ColorIndex
 90
       18
102
RTVSPost2010Prop41ColorRGB
 90
        0
102
RTVSPost2010PropOp41
 70
     0
102
RTVSPost2010Prop42
 90
       50
102
RTVSPost2010PropOp42
 70
     0
102
RTVSPost2010Prop43
 90
        3
102
RTVSPost2010PropOp43
 70
     0
102
RTVSPost2010Prop44ColorIndex
 90
        5
102
RTVSPost2010Prop44ColorRGB
 90
      255
102
RTVSPost2010PropOp44
 70
     0
102
RTVSPost2010Prop45
280
     0
102
RTVSPost2010PropOp45
 70
     0
102
RTVSPost2010Prop46
 90
       50
102
RTVSPost2010PropOp46
 70
     0
102
RTVSPost2010Prop47
 90
       50
102
RTVSPost2010PropOp47
 70
     0
102
RTVSPost2010Prop48
 90
       50
102
RTVSPost2010PropOp48
 70
     0
102
RTVSPost2010Prop49
280
     0
102
RTVSPost2010PropOp49
 70
     0
102
RTVSPost2010Prop50
 90
       50
102
RTVSPost2010PropOp50
 70
     0
102
RTVSPost2010Prop51ColorIndex
 90
      256
102
RTVSPost2010Prop51ColorRGB
 90
-16777216
102
RTVSPost2010PropOp51
 70
     0
102
RTVSPost2010Prop52
140
1.0
102
RTVSPost2010PropOp52
 70
     0
102
RTVSPost2010Prop53
 90
        2
102
RTVSPost2010PropOp53
 70
     0
102
RTVSPost2010Prop54
  1
strokes_ogs.tif
102
RTVSPost2010PropOp54
 70
     0
102
RTVSPost2010Prop55
280
     0
102
RTVSPost2010PropOp55
 70
     0
102
RTVSPost2010Prop56
140
1.0
102
RTVSPost2010PropOp56
 70
     0
102
RTVSPost2010Prop57
140
1.0
102
RTVSPost2010PropOp57
 70
     0
  0
XRECORD
  5
514
102
{ACAD_REACTORS
330
513
102
}
330
513
100
AcDbXrecord
280
     1
102
RTVSPost2010Prop28
280
     0
102
RTVSPost2010PropOp28
 70
     1
102
RTVSPost2010Prop29
280
     1
102
RTVSPost2010PropOp29
 70
     1
102
RTVSPost2010Prop30
280
     1
102
RTVSPost2010PropOp30
 70
     1
102
RTVSPost2010Prop31
280
     0
102
RTVSPost2010PropOp31
 70
     1
102
RTVSPost2010Prop32
280
     0
102
RTVSPost2010PropOp32
 70
     1
102
RTVSPost2010Prop33
280
     0
102
RTVSPost2010PropOp33
 70
     1
102
RTVSPost2010Prop34
280
     0
102
RTVSPost2010PropOp34
 70
     1
102
RTVSPost2010Prop35
280
     0
102
RTVSPost2010PropOp35
 70
     1
102
RTVSPost2010Prop36
280
     0
102
RTVSPost2010PropOp36
 70
     1
102
RTVSPost2010Prop37
 90
       50
102
RTVSPost2010PropOp37
 70
     1
102
RTVSPost2010Prop38
140
0.0
102
RTVSPost2010PropOp38
 70
     1
102
RTVSPost2010Prop39
140
1.0
102
RTVSPost2010PropOp39
 70
     1
102
RTVSPost2010Prop40
 90
        0
102
RTVSPost2010PropOp40
 70
     1
102
RTVSPost2010Prop41ColorIndex
 90
       18
102
RTVSPost2010Prop41ColorRGB
 90
        0
102
RTVSPost2010PropOp41
 70
     1
102
RTVSPost2010Prop42
 90
       50
102
RTVSPost2010PropOp42
 70
     1
102
RTVSPost2010Prop43
 90
        3
102
RTVSPost2010PropOp43
 70
     1
102
RTVSPost2010Prop44ColorIndex
 90
        5
102
RTVSPost2010Prop44ColorRGB
 90
      255
102
RTVSPost2010PropOp44
 70
     1
102
RTVSPost2010Prop45
280
     0
102
RTVSPost2010PropOp45
 70
     1
102
RTVSPost2010Prop46
 90
       50
102
RTVSPost2010PropOp46
 70
     1
102
RTVSPost2010Prop47
 90
       50
102
RTVSPost2010PropOp47
 70
     1
102
RTVSPost2010Prop48
 90
       50
102
RTVSPost2010PropOp48
 70
     1
102
RTVSPost2010Prop49
280
     0
102
RTVSPost2010PropOp49
 70
     1
102
RTVSPost2010Prop50
 90
       50
102
RTVSPost2010PropOp50
 70
     1
102
RTVSPost2010Prop51ColorIndex
 90
      256
102
RTVSPost2010Prop51ColorRGB
 90
-16777216
102
RTVSPost2010PropOp51
 70
     0
102
RTVSPost2010Prop52
140
1.0
102
RTVSPost2010PropOp52
 70
     0
102
RTVSPost2010Prop53
 90
        2
102
RTVSPost2010PropOp53
 70
     1
102
RTVSPost2010Prop54
  1
strokes_ogs.tif
102
RTVSPost2010PropOp54
 70
     1
102
RTVSPost2010Prop55
280
     0
102
RTVSPost2010PropOp55
 70
     1
102
RTVSPost2010Prop56
140
1.0
102
RTVSPost2010PropOp56
 70
     1
102
RTVSPost2010Prop57
140
1.0
102
RTVSPost2010PropOp57
 70
     1
  0
XRECORD
  5
4F8
102
{ACAD_REACTORS
330
4F7
102
}
330
4F7
100
AcDbXrecord
280
     1
102
RTVSPost2010Prop28
280
     0
102
RTVSPost2010PropOp28
 70
     1
102
RTVSPost2010Prop29
280
     1
102
RTVSPost2010PropOp29
 70
     1
102
RTVSPost2010Prop30
280
     1
102
RTVSPost2010PropOp30
 70
     1
102
RTVSPost2010Prop31
280
     0
102
RTVSPost2010PropOp31
 70
     1
102
RTVSPost2010Prop32
280
     0
102
RTVSPost2010PropOp32
 70
     1
102
RTVSPost2010Prop33
280
     0
102
RTVSPost2010PropOp33
 70
     1
102
RTVSPost2010Prop34
280
     0
102
RTVSPost2010PropOp34
 70
     1
102
RTVSPost2010Prop35
280
     0
102
RTVSPost2010PropOp35
 70
     1
102
RTVSPost2010Prop36
280
     0
102
RTVSPost2010PropOp36
 70
     1
102
RTVSPost2010Prop37
 90
       50
102
RTVSPost2010PropOp37
 70
     1
102
RTVSPost2010Prop38
140
0.0
102
RTVSPost2010PropOp38
 70
     1
102
RTVSPost2010Prop39
140
1.0
102
RTVSPost2010PropOp39
 70
     1
102
RTVSPost2010Prop40
 90
        0
102
RTVSPost2010PropOp40
 70
     1
102
RTVSPost2010Prop41ColorIndex
 90
       18
102
RTVSPost2010Prop41ColorRGB
 90
        0
102
RTVSPost2010PropOp41
 70
     1
102
RTVSPost2010Prop42
 90
       50
102
RTVSPost2010PropOp42
 70
     1
102
RTVSPost2010Prop43
 90
        3
102
RTVSPost2010PropOp43
 70
     1
102
RTVSPost2010Prop44ColorIndex
 90
        5
102
RTVSPost2010Prop44ColorRGB
 90
      255
102
RTVSPost2010PropOp44
 70
     1
102
RTVSPost2010Prop45
280
     0
102
RTVSPost2010PropOp45
 70
     1
102
RTVSPost2010Prop46
 90
       50
102
RTVSPost2010PropOp46
 70
     1
102
RTVSPost2010Prop47
 90
       50
102
RTVSPost2010PropOp47
 70
     1
102
RTVSPost2010Prop48
 90
       50
102
RTVSPost2010PropOp48
 70
     1
102
RTVSPost2010Prop49
280
     0
102
RTVSPost2010PropOp49
 70
     1
102
RTVSPost2010Prop50
 90
       50
102
RTVSPost2010PropOp50
 70
     1
102
RTVSPost2010Prop51ColorIndex
 90
      256
102
RTVSPost2010Prop51ColorRGB
 90
-16777216
102
RTVSPost2010PropOp51
 70
     0
102
RTVSPost2010Prop52
140
1.0
102
RTVSPost2010PropOp52
 70
     0
102
RTVSPost2010Prop53
 90
        2
102
RTVSPost2010PropOp53
 70
     1
102
RTVSPost2010Prop54
  1
strokes_ogs.tif
102
RTVSPost2010PropOp54
 70
     1
102
RTVSPost2010Prop55
280
     0
102
RTVSPost2010PropOp55
 70
     1
102
RTVSPost2010Prop56
140
1.0
102
RTVSPost2010PropOp56
 70
     1
102
RTVSPost2010Prop57
140
1.0
102
RTVSPost2010PropOp57
 70
     1
  0
XRECORD
  5
4FA
102
{ACAD_REACTORS
330
4F9
102
}
330
4F9
100
AcDbXrecord
280
     1
102
RTVSPost2010Prop28
280
     0
102
RTVSPost2010PropOp28
 70
     1
102
RTVSPost2010Prop29
280
     1
102
RTVSPost2010PropOp29
 70
     1
102
RTVSPost2010Prop30
280
     1
102
RTVSPost2010PropOp30
 70
     1
102
RTVSPost2010Prop31
280
     0
102
RTVSPost2010PropOp31
 70
     1
102
RTVSPost2010Prop32
280
     0
102
RTVSPost2010PropOp32
 70
     1
102
RTVSPost2010Prop33
280
     0
102
RTVSPost2010PropOp33
 70
     1
102
RTVSPost2010Prop34
280
     0
102
RTVSPost2010PropOp34
 70
     1
102
RTVSPost2010Prop35
280
     0
102
RTVSPost2010PropOp35
 70
     1
102
RTVSPost2010Prop36
280
     0
102
RTVSPost2010PropOp36
 70
     1
102
RTVSPost2010Prop37
 90
       50
102
RTVSPost2010PropOp37
 70
     1
102
RTVSPost2010Prop38
140
0.0
102
RTVSPost2010PropOp38
 70
     1
102
RTVSPost2010Prop39
140
1.0
102
RTVSPost2010PropOp39
 70
     1
102
RTVSPost2010Prop40
 90
        0
102
RTVSPost2010PropOp40
 70
     1
102
RTVSPost2010Prop41ColorIndex
 90
       18
102
RTVSPost2010Prop41ColorRGB
 90
        0
102
RTVSPost2010PropOp41
 70
     1
102
RTVSPost2010Prop42
 90
       50
102
RTVSPost2010PropOp42
 70
     1
102
RTVSPost2010Prop43
 90
        3
102
RTVSPost2010PropOp43
 70
     1
102
RTVSPost2010Prop44ColorIndex
 90
        5
102
RTVSPost2010Prop44ColorRGB
 90
      255
102
RTVSPost2010PropOp44
 70
     1
102
RTVSPost2010Prop45
280
     0
102
RTVSPost2010PropOp45
 70
     1
102
RTVSPost2010Prop46
 90
       50
102
RTVSPost2010PropOp46
 70
     1
102
RTVSPost2010Prop47
 90
       50
102
RTVSPost2010PropOp47
 70
     1
102
RTVSPost2010Prop48
 90
       50
102
RTVSPost2010PropOp48
 70
     1
102
RTVSPost2010Prop49
280
     0
102
RTVSPost2010PropOp49
 70
     1
102
RTVSPost2010Prop50
 90
       50
102
RTVSPost2010PropOp50
 70
     1
102
RTVSPost2010Prop51ColorIndex
 90
      256
102
RTVSPost2010Prop51ColorRGB
 90
-16777216
102
RTVSPost2010PropOp51
 70
     0
102
RTVSPost2010Prop52
140
1.0
102
RTVSPost2010PropOp52
 70
     0
102
RTVSPost2010Prop53
 90
        2
102
RTVSPost2010PropOp53
 70
     1
102
RTVSPost2010Prop54
  1
strokes_ogs.tif
102
RTVSPost2010PropOp54
 70
     1
102
RTVSPost2010Prop55
280
     0
102
RTVSPost2010PropOp55
 70
     1
102
RTVSPost2010Prop56
140
1.0
102
RTVSPost2010PropOp56
 70
     1
102
RTVSPost2010Prop57
140
1.0
102
RTVSPost2010PropOp57
 70
     1
  0
XRECORD
  5
4FC
102
{ACAD_REACTORS
330
4FB
102
}
330
4FB
100
AcDbXrecord
280
     1
102
RTVSPost2010Prop28
280
     0
102
RTVSPost2010PropOp28
 70
     1
102
RTVSPost2010Prop29
280
     1
102
RTVSPost2010PropOp29
 70
     1
102
RTVSPost2010Prop30
280
     1
102
RTVSPost2010PropOp30
 70
     1
102
RTVSPost2010Prop31
280
     0
102
RTVSPost2010PropOp31
 70
     1
102
RTVSPost2010Prop32
280
     0
102
RTVSPost2010PropOp32
 70
     1
102
RTVSPost2010Prop33
280
     0
102
RTVSPost2010PropOp33
 70
     1
102
RTVSPost2010Prop34
280
     0
102
RTVSPost2010PropOp34
 70
     1
102
RTVSPost2010Prop35
280
     0
102
RTVSPost2010PropOp35
 70
     1
102
RTVSPost2010Prop36
280
     0
102
RTVSPost2010PropOp36
 70
     1
102
RTVSPost2010Prop37
 90
       50
102
RTVSPost2010PropOp37
 70
     1
102
RTVSPost2010Prop38
140
0.0
102
RTVSPost2010PropOp38
 70
     1
102
RTVSPost2010Prop39
140
1.0
102
RTVSPost2010PropOp39
 70
     1
102
RTVSPost2010Prop40
 90
        0
102
RTVSPost2010PropOp40
 70
     1
102
RTVSPost2010Prop41ColorIndex
 90
       18
102
RTVSPost2010Prop41ColorRGB
 90
        0
102
RTVSPost2010PropOp41
 70
     1
102
RTVSPost2010Prop42
 90
       50
102
RTVSPost2010PropOp42
 70
     1
102
RTVSPost2010Prop43
 90
        3
102
RTVSPost2010PropOp43
 70
     1
102
RTVSPost2010Prop44ColorIndex
 90
        5
102
RTVSPost2010Prop44ColorRGB
 90
      255
102
RTVSPost2010PropOp44
 70
     1
102
RTVSPost2010Prop45
280
     0
102
RTVSPost2010PropOp45
 70
     1
102
RTVSPost2010Prop46
 90
       50
102
RTVSPost2010PropOp46
 70
     1
102
RTVSPost2010Prop47
 90
       50
102
RTVSPost2010PropOp47
 70
     1
102
RTVSPost2010Prop48
 90
       50
102
RTVSPost2010PropOp48
 70
     1
102
RTVSPost2010Prop49
280
     0
102
RTVSPost2010PropOp49
 70
     1
102
RTVSPost2010Prop50
 90
       50
102
RTVSPost2010PropOp50
 70
     1
102
RTVSPost2010Prop51ColorIndex
 90
      256
102
RTVSPost2010Prop51ColorRGB
 90
-16777216
102
RTVSPost2010PropOp51
 70
     0
102
RTVSPost2010Prop52
140
1.0
102
RTVSPost2010PropOp52
 70
     0
102
RTVSPost2010Prop53
 90
        2
102
RTVSPost2010PropOp53
 70
     1
102
RTVSPost2010Prop54
  1
strokes_ogs.tif
102
RTVSPost2010PropOp54
 70
     1
102
RTVSPost2010Prop55
280
     0
102
RTVSPost2010PropOp55
 70
     1
102
RTVSPost2010Prop56
140
1.0
102
RTVSPost2010PropOp56
 70
     1
102
RTVSPost2010Prop57
140
1.0
102
RTVSPost2010PropOp57
 70
     1
  0
XRECORD
  5
4FE
102
{ACAD_REACTORS
330
4FD
102
}
330
4FD
100
AcDbXrecord
280
     1
102
RTVSPost2010Prop28
280
     0
102
RTVSPost2010PropOp28
 70
     1
102
RTVSPost2010Prop29
280
     1
102
RTVSPost2010PropOp29
 70
     1
102
RTVSPost2010Prop30
280
     1
102
RTVSPost2010PropOp30
 70
     1
102
RTVSPost2010Prop31
280
     0
102
RTVSPost2010PropOp31
 70
     1
102
RTVSPost2010Prop32
280
     0
102
RTVSPost2010PropOp32
 70
     1
102
RTVSPost2010Prop33
280
     0
102
RTVSPost2010PropOp33
 70
     1
102
RTVSPost2010Prop34
280
     0
102
RTVSPost2010PropOp34
 70
     1
102
RTVSPost2010Prop35
280
     0
102
RTVSPost2010PropOp35
 70
     1
102
RTVSPost2010Prop36
280
     0
102
RTVSPost2010PropOp36
 70
     1
102
RTVSPost2010Prop37
 90
       50
102
RTVSPost2010PropOp37
 70
     1
102
RTVSPost2010Prop38
140
0.0
102
RTVSPost2010PropOp38
 70
     1
102
RTVSPost2010Prop39
140
1.0
102
RTVSPost2010PropOp39
 70
     1
102
RTVSPost2010Prop40
 90
        0
102
RTVSPost2010PropOp40
 70
     1
102
RTVSPost2010Prop41ColorIndex
 90
       18
102
RTVSPost2010Prop41ColorRGB
 90
        0
102
RTVSPost2010PropOp41
 70
     1
102
RTVSPost2010Prop42
 90
       50
102
RTVSPost2010PropOp42
 70
     1
102
RTVSPost2010Prop43
 90
        3
102
RTVSPost2010PropOp43
 70
     1
102
RTVSPost2010Prop44ColorIndex
 90
        5
102
RTVSPost2010Prop44ColorRGB
 90
      255
102
RTVSPost2010PropOp44
 70
     1
102
RTVSPost2010Prop45
280
     0
102
RTVSPost2010PropOp45
 70
     1
102
RTVSPost2010Prop46
 90
       50
102
RTVSPost2010PropOp46
 70
     1
102
RTVSPost2010Prop47
 90
       50
102
RTVSPost2010PropOp47
 70
     1
102
RTVSPost2010Prop48
 90
       50
102
RTVSPost2010PropOp48
 70
     1
102
RTVSPost2010Prop49
280
     0
102
RTVSPost2010PropOp49
 70
     1
102
RTVSPost2010Prop50
 90
       50
102
RTVSPost2010PropOp50
 70
     1
102
RTVSPost2010Prop51ColorIndex
 90
      256
102
RTVSPost2010Prop51ColorRGB
 90
-16777216
102
RTVSPost2010PropOp51
 70
     0
102
RTVSPost2010Prop52
140
1.0
102
RTVSPost2010PropOp52
 70
     0
102
RTVSPost2010Prop53
 90
        2
102
RTVSPost2010PropOp53
 70
     1
102
RTVSPost2010Prop54
  1
strokes_ogs.tif
102
RTVSPost2010PropOp54
 70
     1
102
RTVSPost2010Prop55
280
     0
102
RTVSPost2010PropOp55
 70
     1
102
RTVSPost2010Prop56
140
1.0
102
RTVSPost2010PropOp56
 70
     1
102
RTVSPost2010Prop57
140
1.0
102
RTVSPost2010PropOp57
 70
     1
  0
XRECORD
  5
504
102
{ACAD_REACTORS
330
503
102
}
330
503
100
AcDbXrecord
280
     1
102
RTVSPost2010Prop28
280
     0
102
RTVSPost2010PropOp28
 70
     1
102
RTVSPost2010Prop29
280
     1
102
RTVSPost2010PropOp29
 70
     1
102
RTVSPost2010Prop30
280
     1
102
RTVSPost2010PropOp30
 70
     1
102
RTVSPost2010Prop31
280
     0
102
RTVSPost2010PropOp31
 70
     1
102
RTVSPost2010Prop32
280
     0
102
RTVSPost2010PropOp32
 70
     1
102
RTVSPost2010Prop33
280
     0
102
RTVSPost2010PropOp33
 70
     1
102
RTVSPost2010Prop34
280
     0
102
RTVSPost2010PropOp34
 70
     1
102
RTVSPost2010Prop35
280
     0
102
RTVSPost2010PropOp35
 70
     1
102
RTVSPost2010Prop36
280
     0
102
RTVSPost2010PropOp36
 70
     1
102
RTVSPost2010Prop37
 90
       50
102
RTVSPost2010PropOp37
 70
     1
102
RTVSPost2010Prop38
140
0.0
102
RTVSPost2010PropOp38
 70
     1
102
RTVSPost2010Prop39
140
1.0
102
RTVSPost2010PropOp39
 70
     1
102
RTVSPost2010Prop40
 90
        0
102
RTVSPost2010PropOp40
 70
     1
102
RTVSPost2010Prop41ColorIndex
 90
       18
102
RTVSPost2010Prop41ColorRGB
 90
        0
102
RTVSPost2010PropOp41
 70
     1
102
RTVSPost2010Prop42
 90
       50
102
RTVSPost2010PropOp42
 70
     1
102
RTVSPost2010Prop43
 90
        3
102
RTVSPost2010PropOp43
 70
     1
102
RTVSPost2010Prop44ColorIndex
 90
        5
102
RTVSPost2010Prop44ColorRGB
 90
      255
102
RTVSPost2010PropOp44
 70
     1
102
RTVSPost2010Prop45
280
     0
102
RTVSPost2010PropOp45
 70
     1
102
RTVSPost2010Prop46
 90
       50
102
RTVSPost2010PropOp46
 70
     1
102
RTVSPost2010Prop47
 90
       50
102
RTVSPost2010PropOp47
 70
     1
102
RTVSPost2010Prop48
 90
       50
102
RTVSPost2010PropOp48
 70
     1
102
RTVSPost2010Prop49
280
     0
102
RTVSPost2010PropOp49
 70
     1
102
RTVSPost2010Prop50
 90
       50
102
RTVSPost2010PropOp50
 70
     1
102
RTVSPost2010Prop51ColorIndex
 90
      256
102
RTVSPost2010Prop51ColorRGB
 90
-16777216
102
RTVSPost2010PropOp51
 70
     0
102
RTVSPost2010Prop52
140
1.0
102
RTVSPost2010PropOp52
 70
     0
102
RTVSPost2010Prop53
 90
        2
102
RTVSPost2010PropOp53
 70
     1
102
RTVSPost2010Prop54
  1
strokes_ogs.tif
102
RTVSPost2010PropOp54
 70
     1
102
RTVSPost2010Prop55
280
     0
102
RTVSPost2010PropOp55
 70
     1
102
RTVSPost2010Prop56
140
1.0
102
RTVSPost2010PropOp56
 70
     1
102
RTVSPost2010Prop57
140
1.0
102
RTVSPost2010PropOp57
 70
     1
  0
XRECORD
  5
518
102
{ACAD_REACTORS
330
517
102
}
330
517
100
AcDbXrecord
280
     1
102
RTVSPost2010Prop28
280
     0
102
RTVSPost2010PropOp28
 70
     0
102
RTVSPost2010Prop29
280
     1
102
RTVSPost2010PropOp29
 70
     0
102
RTVSPost2010Prop30
280
     1
102
RTVSPost2010PropOp30
 70
     0
102
RTVSPost2010Prop31
280
     0
102
RTVSPost2010PropOp31
 70
     0
102
RTVSPost2010Prop32
280
     0
102
RTVSPost2010PropOp32
 70
     0
102
RTVSPost2010Prop33
280
     0
102
RTVSPost2010PropOp33
 70
     0
102
RTVSPost2010Prop34
280
     0
102
RTVSPost2010PropOp34
 70
     0
102
RTVSPost2010Prop35
280
     0
102
RTVSPost2010PropOp35
 70
     0
102
RTVSPost2010Prop36
280
     0
102
RTVSPost2010PropOp36
 70
     0
102
RTVSPost2010Prop37
 90
       50
102
RTVSPost2010PropOp37
 70
     0
102
RTVSPost2010Prop38
140
0.0
102
RTVSPost2010PropOp38
 70
     0
102
RTVSPost2010Prop39
140
1.0
102
RTVSPost2010PropOp39
 70
     0
102
RTVSPost2010Prop40
 90
        0
102
RTVSPost2010PropOp40
 70
     0
102
RTVSPost2010Prop41ColorIndex
 90
       18
102
RTVSPost2010Prop41ColorRGB
 90
        0
102
RTVSPost2010PropOp41
 70
     0
102
RTVSPost2010Prop42
 90
       50
102
RTVSPost2010PropOp42
 70
     0
102
RTVSPost2010Prop43
 90
        3
102
RTVSPost2010PropOp43
 70
     0
102
RTVSPost2010Prop44ColorIndex
 90
        5
102
RTVSPost2010Prop44ColorRGB
 90
      255
102
RTVSPost2010PropOp44
 70
     0
102
RTVSPost2010Prop45
280
     0
102
RTVSPost2010PropOp45
 70
     0
102
RTVSPost2010Prop46
 90
       50
102
RTVSPost2010PropOp46
 70
     0
102
RTVSPost2010Prop47
 90
       50
102
RTVSPost2010PropOp47
 70
     0
102
RTVSPost2010Prop48
 90
       50
102
RTVSPost2010PropOp48
 70
     0
102
RTVSPost2010Prop49
280
     0
102
RTVSPost2010PropOp49
 70
     0
102
RTVSPost2010Prop50
 90
       50
102
RTVSPost2010PropOp50
 70
     0
102
RTVSPost2010Prop51ColorIndex
 90
      256
102
RTVSPost2010Prop51ColorRGB
 90
-16777216
102
RTVSPost2010PropOp51
 70
     0
102
RTVSPost2010Prop52
140
1.0
102
RTVSPost2010PropOp52
 70
     0
102
RTVSPost2010Prop53
 90
        2
102
RTVSPost2010PropOp53
 70
     0
102
RTVSPost2010Prop54
  1
strokes_ogs.tif
102
RTVSPost2010PropOp54
 70
     0
102
RTVSPost2010Prop55
280
     0
102
RTVSPost2010PropOp55
 70
     0
102
RTVSPost2010Prop56
140
1.0
102
RTVSPost2010PropOp56
 70
     0
102
RTVSPost2010Prop57
140
1.0
102
RTVSPost2010PropOp57
 70
     0
  0
XRECORD
  5
512
102
{ACAD_REACTORS
330
511
102
}
330
511
100
AcDbXrecord
280
     1
102
RTVSPost2010Prop28
280
     0
102
RTVSPost2010PropOp28
 70
     1
102
RTVSPost2010Prop29
280
     1
102
RTVSPost2010PropOp29
 70
     1
102
RTVSPost2010Prop30
280
     1
102
RTVSPost2010PropOp30
 70
     1
102
RTVSPost2010Prop31
280
     0
102
RTVSPost2010PropOp31
 70
     1
102
RTVSPost2010Prop32
280
     0
102
RTVSPost2010PropOp32
 70
     1
102
RTVSPost2010Prop33
280
     0
102
RTVSPost2010PropOp33
 70
     1
102
RTVSPost2010Prop34
280
     0
102
RTVSPost2010PropOp34
 70
     1
102
RTVSPost2010Prop35
280
     0
102
RTVSPost2010PropOp35
 70
     1
102
RTVSPost2010Prop36
280
     0
102
RTVSPost2010PropOp36
 70
     1
102
RTVSPost2010Prop37
 90
       50
102
RTVSPost2010PropOp37
 70
     1
102
RTVSPost2010Prop38
140
0.0
102
RTVSPost2010PropOp38
 70
     1
102
RTVSPost2010Prop39
140
1.0
102
RTVSPost2010PropOp39
 70
     1
102
RTVSPost2010Prop40
 90
        0
102
RTVSPost2010PropOp40
 70
     1
102
RTVSPost2010Prop41ColorIndex
 90
       18
102
RTVSPost2010Prop41ColorRGB
 90
        0
102
RTVSPost2010PropOp41
 70
     1
102
RTVSPost2010Prop42
 90
       50
102
RTVSPost2010PropOp42
 70
     1
102
RTVSPost2010Prop43
 90
        3
102
RTVSPost2010PropOp43
 70
     1
102
RTVSPost2010Prop44ColorIndex
 90
        5
102
RTVSPost2010Prop44ColorRGB
 90
      255
102
RTVSPost2010PropOp44
 70
     1
102
RTVSPost2010Prop45
280
     0
102
RTVSPost2010PropOp45
 70
     1
102
RTVSPost2010Prop46
 90
       50
102
RTVSPost2010PropOp46
 70
     1
102
RTVSPost2010Prop47
 90
       50
102
RTVSPost2010PropOp47
 70
     1
102
RTVSPost2010Prop48
 90
       50
102
RTVSPost2010PropOp48
 70
     1
102
RTVSPost2010Prop49
280
     0
102
RTVSPost2010PropOp49
 70
     1
102
RTVSPost2010Prop50
 90
       50
102
RTVSPost2010PropOp50
 70
     1
102
RTVSPost2010Prop51ColorIndex
 90
      256
102
RTVSPost2010Prop51ColorRGB
 90
-16777216
102
RTVSPost2010PropOp51
 70
     0
102
RTVSPost2010Prop52
140
1.0
102
RTVSPost2010PropOp52
 70
     0
102
RTVSPost2010Prop53
 90
        2
102
RTVSPost2010PropOp53
 70
     1
102
RTVSPost2010Prop54
  1
strokes_ogs.tif
102
RTVSPost2010PropOp54
 70
     1
102
RTVSPost2010Prop55
280
     0
102
RTVSPost2010PropOp55
 70
     1
102
RTVSPost2010Prop56
140
1.0
102
RTVSPost2010PropOp56
 70
     1
102
RTVSPost2010Prop57
140
1.0
102
RTVSPost2010PropOp57
 70
     1
  0
XRECORD
  5
51A
102
{ACAD_REACTORS
330
519
102
}
330
519
100
AcDbXrecord
280
     1
102
RTVSPost2010Prop28
280
     0
102
RTVSPost2010PropOp28
 70
     0
102
RTVSPost2010Prop29
280
     1
102
RTVSPost2010PropOp29
 70
     0
102
RTVSPost2010Prop30
280
     1
102
RTVSPost2010PropOp30
 70
     0
102
RTVSPost2010Prop31
280
     0
102
RTVSPost2010PropOp31
 70
     0
102
RTVSPost2010Prop32
280
     0
102
RTVSPost2010PropOp32
 70
     0
102
RTVSPost2010Prop33
280
     0
102
RTVSPost2010PropOp33
 70
     0
102
RTVSPost2010Prop34
280
     0
102
RTVSPost2010PropOp34
 70
     0
102
RTVSPost2010Prop35
280
     0
102
RTVSPost2010PropOp35
 70
     0
102
RTVSPost2010Prop36
280
     0
102
RTVSPost2010PropOp36
 70
     0
102
RTVSPost2010Prop37
 90
       50
102
RTVSPost2010PropOp37
 70
     0
102
RTVSPost2010Prop38
140
0.0
102
RTVSPost2010PropOp38
 70
     0
102
RTVSPost2010Prop39
140
1.0
102
RTVSPost2010PropOp39
 70
     0
102
RTVSPost2010Prop40
 90
        0
102
RTVSPost2010PropOp40
 70
     0
102
RTVSPost2010Prop41ColorIndex
 90
       18
102
RTVSPost2010Prop41ColorRGB
 90
        0
102
RTVSPost2010PropOp41
 70
     0
102
RTVSPost2010Prop42
 90
       50
102
RTVSPost2010PropOp42
 70
     0
102
RTVSPost2010Prop43
 90
        3
102
RTVSPost2010PropOp43
 70
     0
102
RTVSPost2010Prop44ColorIndex
 90
        5
102
RTVSPost2010Prop44ColorRGB
 90
      255
102
RTVSPost2010PropOp44
 70
     0
102
RTVSPost2010Prop45
280
     0
102
RTVSPost2010PropOp45
 70
     0
102
RTVSPost2010Prop46
 90
       50
102
RTVSPost2010PropOp46
 70
     0
102
RTVSPost2010Prop47
 90
       50
102
RTVSPost2010PropOp47
 70
     0
102
RTVSPost2010Prop48
 90
       50
102
RTVSPost2010PropOp48
 70
     0
102
RTVSPost2010Prop49
280
     0
102
RTVSPost2010PropOp49
 70
     0
102
RTVSPost2010Prop50
 90
       50
102
RTVSPost2010PropOp50
 70
     0
102
RTVSPost2010Prop51ColorIndex
 90
      256
102
RTVSPost2010Prop51ColorRGB
 90
-16777216
102
RTVSPost2010PropOp51
 70
     0
102
RTVSPost2010Prop52
140
1.0
102
RTVSPost2010PropOp52
 70
     0
102
RTVSPost2010Prop53
 90
        2
102
RTVSPost2010PropOp53
 70
     0
102
RTVSPost2010Prop54
  1
strokes_ogs.tif
102
RTVSPost2010PropOp54
 70
     0
102
RTVSPost2010Prop55
280
     0
102
RTVSPost2010PropOp55
 70
     0
102
RTVSPost2010Prop56
140
1.0
102
RTVSPost2010PropOp56
 70
     0
102
RTVSPost2010Prop57
140
1.0
102
RTVSPost2010PropOp57
 70
     0
  0
XRECORD
  5
508
102
{ACAD_REACTORS
330
507
102
}
330
507
100
AcDbXrecord
280
     1
102
RTVSPost2010Prop28
280
     0
102
RTVSPost2010PropOp28
 70
     1
102
RTVSPost2010Prop29
280
     1
102
RTVSPost2010PropOp29
 70
     1
102
RTVSPost2010Prop30
280
     1
102
RTVSPost2010PropOp30
 70
     1
102
RTVSPost2010Prop31
280
     0
102
RTVSPost2010PropOp31
 70
     1
102
RTVSPost2010Prop32
280
     0
102
RTVSPost2010PropOp32
 70
     1
102
RTVSPost2010Prop33
280
     0
102
RTVSPost2010PropOp33
 70
     1
102
RTVSPost2010Prop34
280
     0
102
RTVSPost2010PropOp34
 70
     1
102
RTVSPost2010Prop35
280
     0
102
RTVSPost2010PropOp35
 70
     1
102
RTVSPost2010Prop36
280
     0
102
RTVSPost2010PropOp36
 70
     1
102
RTVSPost2010Prop37
 90
       50
102
RTVSPost2010PropOp37
 70
     1
102
RTVSPost2010Prop38
140
0.0
102
RTVSPost2010PropOp38
 70
     1
102
RTVSPost2010Prop39
140
1.0
102
RTVSPost2010PropOp39
 70
     1
102
RTVSPost2010Prop40
 90
        0
102
RTVSPost2010PropOp40
 70
     1
102
RTVSPost2010Prop41ColorIndex
 90
       18
102
RTVSPost2010Prop41ColorRGB
 90
        0
102
RTVSPost2010PropOp41
 70
     1
102
RTVSPost2010Prop42
 90
       50
102
RTVSPost2010PropOp42
 70
     1
102
RTVSPost2010Prop43
 90
        3
102
RTVSPost2010PropOp43
 70
     1
102
RTVSPost2010Prop44ColorIndex
 90
        5
102
RTVSPost2010Prop44ColorRGB
 90
      255
102
RTVSPost2010PropOp44
 70
     1
102
RTVSPost2010Prop45
280
     0
102
RTVSPost2010PropOp45
 70
     1
102
RTVSPost2010Prop46
 90
       50
102
RTVSPost2010PropOp46
 70
     1
102
RTVSPost2010Prop47
 90
       50
102
RTVSPost2010PropOp47
 70
     1
102
RTVSPost2010Prop48
 90
       50
102
RTVSPost2010PropOp48
 70
     1
102
RTVSPost2010Prop49
280
     0
102
RTVSPost2010PropOp49
 70
     1
102
RTVSPost2010Prop50
 90
       50
102
RTVSPost2010PropOp50
 70
     1
102
RTVSPost2010Prop51ColorIndex
 90
      256
102
RTVSPost2010Prop51ColorRGB
 90
-16777216
102
RTVSPost2010PropOp51
 70
     0
102
RTVSPost2010Prop52
140
1.0
102
RTVSPost2010PropOp52
 70
     0
102
RTVSPost2010Prop53
 90
        2
102
RTVSPost2010PropOp53
 70
     1
102
RTVSPost2010Prop54
  1
strokes_ogs.tif
102
RTVSPost2010PropOp54
 70
     1
102
RTVSPost2010Prop55
280
     0
102
RTVSPost2010PropOp55
 70
     1
102
RTVSPost2010Prop56
140
1.0
102
RTVSPost2010PropOp56
 70
     1
102
RTVSPost2010Prop57
140
1.0
102
RTVSPost2010PropOp57
 70
     1
  0
XRECORD
  5
526
102
{ACAD_REACTORS
330
525
102
}
330
525
100
AcDbXrecord
280
     1
102
RTVSPost2010Prop28
280
     0
102
RTVSPost2010PropOp28
 70
     1
102
RTVSPost2010Prop29
280
     1
102
RTVSPost2010PropOp29
 70
     1
102
RTVSPost2010Prop30
280
     1
102
RTVSPost2010PropOp30
 70
     1
102
RTVSPost2010Prop31
280
     0
102
RTVSPost2010PropOp31
 70
     1
102
RTVSPost2010Prop32
280
     0
102
RTVSPost2010PropOp32
 70
     1
102
RTVSPost2010Prop33
280
     0
102
RTVSPost2010PropOp33
 70
     1
102
RTVSPost2010Prop34
280
     0
102
RTVSPost2010PropOp34
 70
     1
102
RTVSPost2010Prop35
280
     0
102
RTVSPost2010PropOp35
 70
     1
102
RTVSPost2010Prop36
280
     0
102
RTVSPost2010PropOp36
 70
     1
102
RTVSPost2010Prop37
 90
       50
102
RTVSPost2010PropOp37
 70
     1
102
RTVSPost2010Prop38
140
0.0
102
RTVSPost2010PropOp38
 70
     1
102
RTVSPost2010Prop39
140
1.0
102
RTVSPost2010PropOp39
 70
     1
102
RTVSPost2010Prop40
 90
        0
102
RTVSPost2010PropOp40
 70
     1
102
RTVSPost2010Prop41ColorIndex
 90
       18
102
RTVSPost2010Prop41ColorRGB
 90
        0
102
RTVSPost2010PropOp41
 70
     1
102
RTVSPost2010Prop42
 90
       50
102
RTVSPost2010PropOp42
 70
     1
102
RTVSPost2010Prop43
 90
        3
102
RTVSPost2010PropOp43
 70
     1
102
RTVSPost2010Prop44ColorIndex
 90
        5
102
RTVSPost2010Prop44ColorRGB
 90
      255
102
RTVSPost2010PropOp44
 70
     1
102
RTVSPost2010Prop45
280
     0
102
RTVSPost2010PropOp45
 70
     1
102
RTVSPost2010Prop46
 90
       50
102
RTVSPost2010PropOp46
 70
     1
102
RTVSPost2010Prop47
 90
       50
102
RTVSPost2010PropOp47
 70
     1
102
RTVSPost2010Prop48
 90
       50
102
RTVSPost2010PropOp48
 70
     1
102
RTVSPost2010Prop49
280
     0
102
RTVSPost2010PropOp49
 70
     1
102
RTVSPost2010Prop50
 90
       50
102
RTVSPost2010PropOp50
 70
     1
102
RTVSPost2010Prop51ColorIndex
 90
      256
102
RTVSPost2010Prop51ColorRGB
 90
-16777216
102
RTVSPost2010PropOp51
 70
     0
102
RTVSPost2010Prop52
140
1.0
102
RTVSPost2010PropOp52
 70
     0
102
RTVSPost2010Prop53
 90
        2
102
RTVSPost2010PropOp53
 70
     1
102
RTVSPost2010Prop54
  1
strokes_ogs.tif
102
RTVSPost2010PropOp54
 70
     1
102
RTVSPost2010Prop55
280
     0
102
RTVSPost2010PropOp55
 70
     1
102
RTVSPost2010Prop56
140
1.0
102
RTVSPost2010PropOp56
 70
     1
102
RTVSPost2010Prop57
140
1.0
102
RTVSPost2010PropOp57
 70
     1
  0
XRECORD
  5
524
102
{ACAD_REACTORS
330
523
102
}
330
523
100
AcDbXrecord
280
     1
102
RTVSPost2010Prop28
280
     0
102
RTVSPost2010PropOp28
 70
     1
102
RTVSPost2010Prop29
280
     1
102
RTVSPost2010PropOp29
 70
     1
102
RTVSPost2010Prop30
280
     1
102
RTVSPost2010PropOp30
 70
     1
102
RTVSPost2010Prop31
280
     0
102
RTVSPost2010PropOp31
 70
     1
102
RTVSPost2010Prop32
280
     0
102
RTVSPost2010PropOp32
 70
     1
102
RTVSPost2010Prop33
280
     0
102
RTVSPost2010PropOp33
 70
     1
102
RTVSPost2010Prop34
280
     0
102
RTVSPost2010PropOp34
 70
     1
102
RTVSPost2010Prop35
280
     0
102
RTVSPost2010PropOp35
 70
     1
102
RTVSPost2010Prop36
280
     0
102
RTVSPost2010PropOp36
 70
     1
102
RTVSPost2010Prop37
 90
       50
102
RTVSPost2010PropOp37
 70
     1
102
RTVSPost2010Prop38
140
0.0
102
RTVSPost2010PropOp38
 70
     1
102
RTVSPost2010Prop39
140
1.0
102
RTVSPost2010PropOp39
 70
     1
102
RTVSPost2010Prop40
 90
        0
102
RTVSPost2010PropOp40
 70
     1
102
RTVSPost2010Prop41ColorIndex
 90
       18
102
RTVSPost2010Prop41ColorRGB
 90
        0
102
RTVSPost2010PropOp41
 70
     1
102
RTVSPost2010Prop42
 90
       50
102
RTVSPost2010PropOp42
 70
     1
102
RTVSPost2010Prop43
 90
        3
102
RTVSPost2010PropOp43
 70
     1
102
RTVSPost2010Prop44ColorIndex
 90
        5
102
RTVSPost2010Prop44ColorRGB
 90
      255
102
RTVSPost2010PropOp44
 70
     1
102
RTVSPost2010Prop45
280
     0
102
RTVSPost2010PropOp45
 70
     1
102
RTVSPost2010Prop46
 90
       50
102
RTVSPost2010PropOp46
 70
     1
102
RTVSPost2010Prop47
 90
       50
102
RTVSPost2010PropOp47
 70
     1
102
RTVSPost2010Prop48
 90
       50
102
RTVSPost2010PropOp48
 70
     1
102
RTVSPost2010Prop49
280
     0
102
RTVSPost2010PropOp49
 70
     1
102
RTVSPost2010Prop50
 90
       50
102
RTVSPost2010PropOp50
 70
     1
102
RTVSPost2010Prop51ColorIndex
 90
      256
102
RTVSPost2010Prop51ColorRGB
 90
-16777216
102
RTVSPost2010PropOp51
 70
     0
102
RTVSPost2010Prop52
140
1.0
102
RTVSPost2010PropOp52
 70
     0
102
RTVSPost2010Prop53
 90
        2
102
RTVSPost2010PropOp53
 70
     1
102
RTVSPost2010Prop54
  1
strokes_ogs.tif
102
RTVSPost2010PropOp54
 70
     1
102
RTVSPost2010Prop55
280
     0
102
RTVSPost2010PropOp55
 70
     1
102
RTVSPost2010Prop56
140
1.0
102
RTVSPost2010PropOp56
 70
     1
102
RTVSPost2010Prop57
140
1.0
102
RTVSPost2010PropOp57
 70
     1
  0
XRECORD
  5
51E
102
{ACAD_REACTORS
330
51D
102
}
330
51D
100
AcDbXrecord
280
     1
102
RTVSPost2010Prop28
280
     0
102
RTVSPost2010PropOp28
 70
     1
102
RTVSPost2010Prop29
280
     1
102
RTVSPost2010PropOp29
 70
     1
102
RTVSPost2010Prop30
280
     1
102
RTVSPost2010PropOp30
 70
     1
102
RTVSPost2010Prop31
280
     0
102
RTVSPost2010PropOp31
 70
     1
102
RTVSPost2010Prop32
280
     0
102
RTVSPost2010PropOp32
 70
     1
102
RTVSPost2010Prop33
280
     0
102
RTVSPost2010PropOp33
 70
     1
102
RTVSPost2010Prop34
280
     0
102
RTVSPost2010PropOp34
 70
     1
102
RTVSPost2010Prop35
280
     0
102
RTVSPost2010PropOp35
 70
     1
102
RTVSPost2010Prop36
280
     0
102
RTVSPost2010PropOp36
 70
     1
102
RTVSPost2010Prop37
 90
       50
102
RTVSPost2010PropOp37
 70
     1
102
RTVSPost2010Prop38
140
0.0
102
RTVSPost2010PropOp38
 70
     1
102
RTVSPost2010Prop39
140
1.0
102
RTVSPost2010PropOp39
 70
     1
102
RTVSPost2010Prop40
 90
        0
102
RTVSPost2010PropOp40
 70
     1
102
RTVSPost2010Prop41ColorIndex
 90
       18
102
RTVSPost2010Prop41ColorRGB
 90
        0
102
RTVSPost2010PropOp41
 70
     1
102
RTVSPost2010Prop42
 90
       50
102
RTVSPost2010PropOp42
 70
     1
102
RTVSPost2010Prop43
 90
        3
102
RTVSPost2010PropOp43
 70
     1
102
RTVSPost2010Prop44ColorIndex
 90
        5
102
RTVSPost2010Prop44ColorRGB
 90
      255
102
RTVSPost2010PropOp44
 70
     1
102
RTVSPost2010Prop45
280
     0
102
RTVSPost2010PropOp45
 70
     1
102
RTVSPost2010Prop46
 90
       50
102
RTVSPost2010PropOp46
 70
     1
102
RTVSPost2010Prop47
 90
       50
102
RTVSPost2010PropOp47
 70
     1
102
RTVSPost2010Prop48
 90
       50
102
RTVSPost2010PropOp48
 70
     1
102
RTVSPost2010Prop49
280
     0
102
RTVSPost2010PropOp49
 70
     1
102
RTVSPost2010Prop50
 90
       50
102
RTVSPost2010PropOp50
 70
     1
102
RTVSPost2010Prop51ColorIndex
 90
      256
102
RTVSPost2010Prop51ColorRGB
 90
-16777216
102
RTVSPost2010PropOp51
 70
     0
102
RTVSPost2010Prop52
140
1.0
102
RTVSPost2010PropOp52
 70
     0
102
RTVSPost2010Prop53
 90
        2
102
RTVSPost2010PropOp53
 70
     1
102
RTVSPost2010Prop54
  1
strokes_ogs.tif
102
RTVSPost2010PropOp54
 70
     1
102
RTVSPost2010Prop55
280
     0
102
RTVSPost2010PropOp55
 70
     1
102
RTVSPost2010Prop56
140
1.0
102
RTVSPost2010PropOp56
 70
     1
102
RTVSPost2010Prop57
140
1.0
102
RTVSPost2010PropOp57
 70
     1
  0
XRECORD
  5
520
102
{ACAD_REACTORS
330
51F
102
}
330
51F
100
AcDbXrecord
280
     1
102
RTVSPost2010Prop28
280
     0
102
RTVSPost2010PropOp28
 70
     1
102
RTVSPost2010Prop29
280
     1
102
RTVSPost2010PropOp29
 70
     1
102
RTVSPost2010Prop30
280
     1
102
RTVSPost2010PropOp30
 70
     1
102
RTVSPost2010Prop31
280
     0
102
RTVSPost2010PropOp31
 70
     1
102
RTVSPost2010Prop32
280
     0
102
RTVSPost2010PropOp32
 70
     1
102
RTVSPost2010Prop33
280
     0
102
RTVSPost2010PropOp33
 70
     1
102
RTVSPost2010Prop34
280
     0
102
RTVSPost2010PropOp34
 70
     1
102
RTVSPost2010Prop35
280
     0
102
RTVSPost2010PropOp35
 70
     1
102
RTVSPost2010Prop36
280
     0
102
RTVSPost2010PropOp36
 70
     1
102
RTVSPost2010Prop37
 90
       50
102
RTVSPost2010PropOp37
 70
     1
102
RTVSPost2010Prop38
140
0.0
102
RTVSPost2010PropOp38
 70
     1
102
RTVSPost2010Prop39
140
1.0
102
RTVSPost2010PropOp39
 70
     1
102
RTVSPost2010Prop40
 90
        0
102
RTVSPost2010PropOp40
 70
     1
102
RTVSPost2010Prop41ColorIndex
 90
       18
102
RTVSPost2010Prop41ColorRGB
 90
        0
102
RTVSPost2010PropOp41
 70
     1
102
RTVSPost2010Prop42
 90
       50
102
RTVSPost2010PropOp42
 70
     1
102
RTVSPost2010Prop43
 90
        3
102
RTVSPost2010PropOp43
 70
     1
102
RTVSPost2010Prop44ColorIndex
 90
        5
102
RTVSPost2010Prop44ColorRGB
 90
      255
102
RTVSPost2010PropOp44
 70
     1
102
RTVSPost2010Prop45
280
     0
102
RTVSPost2010PropOp45
 70
     1
102
RTVSPost2010Prop46
 90
       50
102
RTVSPost2010PropOp46
 70
     1
102
RTVSPost2010Prop47
 90
       50
102
RTVSPost2010PropOp47
 70
     1
102
RTVSPost2010Prop48
 90
       50
102
RTVSPost2010PropOp48
 70
     1
102
RTVSPost2010Prop49
280
     0
102
RTVSPost2010PropOp49
 70
     1
102
RTVSPost2010Prop50
 90
       50
102
RTVSPost2010PropOp50
 70
     1
102
RTVSPost2010Prop51ColorIndex
 90
      256
102
RTVSPost2010Prop51ColorRGB
 90
-16777216
102
RTVSPost2010PropOp51
 70
     0
102
RTVSPost2010Prop52
140
1.0
102
RTVSPost2010PropOp52
 70
     0
102
RTVSPost2010Prop53
 90
        2
102
RTVSPost2010PropOp53
 70
     1
102
RTVSPost2010Prop54
  1
strokes_ogs.tif
102
RTVSPost2010PropOp54
 70
     1
102
RTVSPost2010Prop55
280
     0
102
RTVSPost2010PropOp55
 70
     1
102
RTVSPost2010Prop56
140
1.0
102
RTVSPost2010PropOp56
 70
     1
102
RTVSPost2010Prop57
140
1.0
102
RTVSPost2010PropOp57
 70
     1
  0
XRECORD
  5
510
102
{ACAD_REACTORS
330
50F
102
}
330
50F
100
AcDbXrecord
280
     1
102
RTVSPost2010Prop28
280
     0
102
RTVSPost2010PropOp28
 70
     1
102
RTVSPost2010Prop29
280
     1
102
RTVSPost2010PropOp29
 70
     1
102
RTVSPost2010Prop30
280
     1
102
RTVSPost2010PropOp30
 70
     1
102
RTVSPost2010Prop31
280
     0
102
RTVSPost2010PropOp31
 70
     1
102
RTVSPost2010Prop32
280
     0
102
RTVSPost2010PropOp32
 70
     1
102
RTVSPost2010Prop33
280
     0
102
RTVSPost2010PropOp33
 70
     1
102
RTVSPost2010Prop34
280
     0
102
RTVSPost2010PropOp34
 70
     1
102
RTVSPost2010Prop35
280
     0
102
RTVSPost2010PropOp35
 70
     1
102
RTVSPost2010Prop36
280
     0
102
RTVSPost2010PropOp36
 70
     1
102
RTVSPost2010Prop37
 90
       50
102
RTVSPost2010PropOp37
 70
     1
102
RTVSPost2010Prop38
140
0.0
102
RTVSPost2010PropOp38
 70
     1
102
RTVSPost2010Prop39
140
1.0
102
RTVSPost2010PropOp39
 70
     1
102
RTVSPost2010Prop40
 90
        0
102
RTVSPost2010PropOp40
 70
     1
102
RTVSPost2010Prop41ColorIndex
 90
       18
102
RTVSPost2010Prop41ColorRGB
 90
        0
102
RTVSPost2010PropOp41
 70
     1
102
RTVSPost2010Prop42
 90
       50
102
RTVSPost2010PropOp42
 70
     1
102
RTVSPost2010Prop43
 90
        3
102
RTVSPost2010PropOp43
 70
     1
102
RTVSPost2010Prop44ColorIndex
 90
        5
102
RTVSPost2010Prop44ColorRGB
 90
      255
102
RTVSPost2010PropOp44
 70
     1
102
RTVSPost2010Prop45
280
     0
102
RTVSPost2010PropOp45
 70
     1
102
RTVSPost2010Prop46
 90
       50
102
RTVSPost2010PropOp46
 70
     1
102
RTVSPost2010Prop47
 90
       50
102
RTVSPost2010PropOp47
 70
     1
102
RTVSPost2010Prop48
 90
       50
102
RTVSPost2010PropOp48
 70
     1
102
RTVSPost2010Prop49
280
     0
102
RTVSPost2010PropOp49
 70
     1
102
RTVSPost2010Prop50
 90
       50
102
RTVSPost2010PropOp50
 70
     1
102
RTVSPost2010Prop51ColorIndex
 90
      256
102
RTVSPost2010Prop51ColorRGB
 90
-16777216
102
RTVSPost2010PropOp51
 70
     0
102
RTVSPost2010Prop52
140
1.0
102
RTVSPost2010PropOp52
 70
     0
102
RTVSPost2010Prop53
 90
        2
102
RTVSPost2010PropOp53
 70
     1
102
RTVSPost2010Prop54
  1
strokes_ogs.tif
102
RTVSPost2010PropOp54
 70
     1
102
RTVSPost2010Prop55
280
     0
102
RTVSPost2010PropOp55
 70
     1
102
RTVSPost2010Prop56
140
1.0
102
RTVSPost2010PropOp56
 70
     1
102
RTVSPost2010Prop57
140
1.0
102
RTVSPost2010PropOp57
 70
     1
  0
XRECORD
  5
502
102
{ACAD_REACTORS
330
501
102
}
330
501
100
AcDbXrecord
280
     1
102
RTVSPost2010Prop28
280
     0
102
RTVSPost2010PropOp28
 70
     1
102
RTVSPost2010Prop29
280
     1
102
RTVSPost2010PropOp29
 70
     1
102
RTVSPost2010Prop30
280
     1
102
RTVSPost2010PropOp30
 70
     1
102
RTVSPost2010Prop31
280
     0
102
RTVSPost2010PropOp31
 70
     1
102
RTVSPost2010Prop32
280
     0
102
RTVSPost2010PropOp32
 70
     1
102
RTVSPost2010Prop33
280
     0
102
RTVSPost2010PropOp33
 70
     1
102
RTVSPost2010Prop34
280
     0
102
RTVSPost2010PropOp34
 70
     1
102
RTVSPost2010Prop35
280
     0
102
RTVSPost2010PropOp35
 70
     1
102
RTVSPost2010Prop36
280
     0
102
RTVSPost2010PropOp36
 70
     1
102
RTVSPost2010Prop37
 90
       50
102
RTVSPost2010PropOp37
 70
     1
102
RTVSPost2010Prop38
140
0.0
102
RTVSPost2010PropOp38
 70
     1
102
RTVSPost2010Prop39
140
1.0
102
RTVSPost2010PropOp39
 70
     1
102
RTVSPost2010Prop40
 90
        0
102
RTVSPost2010PropOp40
 70
     1
102
RTVSPost2010Prop41ColorIndex
 90
       18
102
RTVSPost2010Prop41ColorRGB
 90
        0
102
RTVSPost2010PropOp41
 70
     1
102
RTVSPost2010Prop42
 90
       50
102
RTVSPost2010PropOp42
 70
     1
102
RTVSPost2010Prop43
 90
        3
102
RTVSPost2010PropOp43
 70
     1
102
RTVSPost2010Prop44ColorIndex
 90
        5
102
RTVSPost2010Prop44ColorRGB
 90
      255
102
RTVSPost2010PropOp44
 70
     1
102
RTVSPost2010Prop45
280
     0
102
RTVSPost2010PropOp45
 70
     1
102
RTVSPost2010Prop46
 90
       50
102
RTVSPost2010PropOp46
 70
     1
102
RTVSPost2010Prop47
 90
       50
102
RTVSPost2010PropOp47
 70
     1
102
RTVSPost2010Prop48
 90
       50
102
RTVSPost2010PropOp48
 70
     1
102
RTVSPost2010Prop49
280
     0
102
RTVSPost2010PropOp49
 70
     1
102
RTVSPost2010Prop50
 90
       50
102
RTVSPost2010PropOp50
 70
     1
102
RTVSPost2010Prop51ColorIndex
 90
      256
102
RTVSPost2010Prop51ColorRGB
 90
-16777216
102
RTVSPost2010PropOp51
 70
     0
102
RTVSPost2010Prop52
140
1.0
102
RTVSPost2010PropOp52
 70
     0
102
RTVSPost2010Prop53
 90
        2
102
RTVSPost2010PropOp53
 70
     1
102
RTVSPost2010Prop54
  1
strokes_ogs.tif
102
RTVSPost2010PropOp54
 70
     1
102
RTVSPost2010Prop55
280
     0
102
RTVSPost2010PropOp55
 70
     1
102
RTVSPost2010Prop56
140
1.0
102
RTVSPost2010PropOp56
 70
     1
102
RTVSPost2010Prop57
140
1.0
102
RTVSPost2010PropOp57
 70
     1
  0
XRECORD
  5
522
102
{ACAD_REACTORS
330
521
102
}
330
521
100
AcDbXrecord
280
     1
102
RTVSPost2010Prop28
280
     0
102
RTVSPost2010PropOp28
 70
     1
102
RTVSPost2010Prop29
280
     1
102
RTVSPost2010PropOp29
 70
     1
102
RTVSPost2010Prop30
280
     1
102
RTVSPost2010PropOp30
 70
     1
102
RTVSPost2010Prop31
280
     0
102
RTVSPost2010PropOp31
 70
     1
102
RTVSPost2010Prop32
280
     0
102
RTVSPost2010PropOp32
 70
     1
102
RTVSPost2010Prop33
280
     0
102
RTVSPost2010PropOp33
 70
     1
102
RTVSPost2010Prop34
280
     0
102
RTVSPost2010PropOp34
 70
     1
102
RTVSPost2010Prop35
280
     0
102
RTVSPost2010PropOp35
 70
     1
102
RTVSPost2010Prop36
280
     0
102
RTVSPost2010PropOp36
 70
     1
102
RTVSPost2010Prop37
 90
       50
102
RTVSPost2010PropOp37
 70
     1
102
RTVSPost2010Prop38
140
0.0
102
RTVSPost2010PropOp38
 70
     1
102
RTVSPost2010Prop39
140
1.0
102
RTVSPost2010PropOp39
 70
     1
102
RTVSPost2010Prop40
 90
        0
102
RTVSPost2010PropOp40
 70
     1
102
RTVSPost2010Prop41ColorIndex
 90
       18
102
RTVSPost2010Prop41ColorRGB
 90
        0
102
RTVSPost2010PropOp41
 70
     1
102
RTVSPost2010Prop42
 90
       50
102
RTVSPost2010PropOp42
 70
     1
102
RTVSPost2010Prop43
 90
        3
102
RTVSPost2010PropOp43
 70
     1
102
RTVSPost2010Prop44ColorIndex
 90
        5
102
RTVSPost2010Prop44ColorRGB
 90
      255
102
RTVSPost2010PropOp44
 70
     1
102
RTVSPost2010Prop45
280
     0
102
RTVSPost2010PropOp45
 70
     1
102
RTVSPost2010Prop46
 90
       50
102
RTVSPost2010PropOp46
 70
     1
102
RTVSPost2010Prop47
 90
       50
102
RTVSPost2010PropOp47
 70
     1
102
RTVSPost2010Prop48
 90
       50
102
RTVSPost2010PropOp48
 70
     1
102
RTVSPost2010Prop49
280
     0
102
RTVSPost2010PropOp49
 70
     1
102
RTVSPost2010Prop50
 90
       50
102
RTVSPost2010PropOp50
 70
     1
102
RTVSPost2010Prop51ColorIndex
 90
      256
102
RTVSPost2010Prop51ColorRGB
 90
-16777216
102
RTVSPost2010PropOp51
 70
     0
102
RTVSPost2010Prop52
140
1.0
102
RTVSPost2010PropOp52
 70
     0
102
RTVSPost2010Prop53
 90
        2
102
RTVSPost2010PropOp53
 70
     1
102
RTVSPost2010Prop54
  1
strokes_ogs.tif
102
RTVSPost2010PropOp54
 70
     1
102
RTVSPost2010Prop55
280
     0
102
RTVSPost2010PropOp55
 70
     1
102
RTVSPost2010Prop56
140
1.0
102
RTVSPost2010PropOp56
 70
     1
102
RTVSPost2010Prop57
140
1.0
102
RTVSPost2010PropOp57
 70
     1
  0
ENDSEC
  0
EOF
